  0
SECTION
  2
HEADER
  9
$ACADVER
  1
AC1006
  9
$INSBASE
 10
0.0
 20
0.0
 30
0.0
  9
$EXTMIN
 10
-0.09
 20
0.37
  9
$EXTMAX
 10
12.99
 20
9.94
  9
$LIMMIN
 10
0.0
 20
0.0
  9
$LIMMAX
 10
15.0
 20
10.0
  9
$ORTHOMODE
 70
     0
  9
$REGENMODE
 70
     1
  9
$FILLMODE
 70
     1
  9
$QTEXTMODE
 70
     0
  9
$MIRRTEXT
 70
     1
  9
$DRAGMODE
 70
     2
  9
$LTSCALE
 40
1.0
  9
$OSMODE
 70
     0
  9
$ATTMODE
 70
     1
  9
$TEXTSIZE
 40
0.36
  9
$TRACEWID
 40
0.19
  9
$TEXTSTYLE
  7
STANDARD
  9
$CLAYER
  8
0
  9
$CELTYPE
  6
VONLAYER
  9
$CECOLOR
 62
   256
  9
$DIMSCALE
 40
1.0
  9
$DIMASZ
 40
0.18
  9
$DIMEXO
 40
0.06
  9
$DIMDLI
 40
0.38
  9
$DIMRND
 40
0.0
  9
$DIMDLE
 40
0.0
  9
$DIMEXE
 40
0.18
  9
$DIMTP
 40
0.0
  9
$DIMTM
 40
0.0
  9
$DIMTXT
 40
0.18
  9
$DIMCEN
 40
0.09
  9
$DIMTSZ
 40
0.0
  9
$DIMTOL
 70
     0
  9
$DIMLIM
 70
     0
  9
$DIMTIH
 70
     1
  9
$DIMTOH
 70
     1
  9
$DIMSE1
 70
     0
  9
$DIMSE2
 70
     0
  9
$DIMTAD
 70
     0
  9
$DIMZIN
 70
     0
  9
$DIMBLK
  1

  9
$DIMASO
 70
     0
  9
$DIMSHO
 70
     0
  9
$DIMPOST
  1

  9
$DIMAPOST
  1

  9
$DIMALT
 70
     0
  9
$DIMALTD
 70
     2
  9
$DIMALTF
 40
25.4
  9
$DIMLFAC
 40
1.0
  9
$DIMTOFL
 70
     0
  9
$DIMTVP
 40
0.0
  9
$DIMTIX
 70
     0
  9
$DIMSOXD
 70
     0
  9
$DIMSAH
 70
     0
  9
$DIMBLK1
  1

  9
$DIMBLK2
  1

  9
$LUNITS
 70
     2
  9
$LUPREC
 70
     4
  9
$AXISMODE
 70
     0
  9
$AXISUNIT
 10
0.0
 20
0.0
  9
$SKETCHINC
 40
0.1
  9
$FILLETRAD
 40
0.0
  9
$AUNITS
 70
     1
  9
$AUPREC
 70
     4
  9
$MENU
  1
acad
  9
$ELEVATION
 40
0.0
  9
$THICKNESS
 40
0.0
  9
$LIMCHECK
 70
     0
  9
$BLIPMODE
 70
     1
  9
$CHAMFERA
 40
0.0
  9
$CHAMFERB
 40
0.0
  9
$SKPOLY
 70
     0
  9
$TDCREATE
 40
2446473.5191170140
  9
$TDUPDATE
 40
2448857.5825280091
  9
$TDINDWG
 40
0.0027908565
  9
$TDUSRTIMER
 40
0.0027908565
  9
$USRTIMER
 70
     1
  9
$ANGBASE
 50
0.0
  9
$ANGDIR
 70
     0
  9
$PDMODE
 70
     0
  9
$PDSIZE
 40
0.0
  9
$PLINEWID
 40
0.0
  9
$COORDS
 70
     0
  9
$SPLFRAME
 70
     0
  9
$SPLINETYPE
 70
     6
  9
$SPLINESEGS
 70
     8
  9
$ATTDIA
 70
     0
  9
$ATTREQ
 70
     1
  9
$HANDLING
 70
     0
  9
$HANDSEED
  5
0
  9
$SURFTAB1
 70
     6
  9
$SURFTAB2
 70
     6
  9
$SURFTYPE
 70
     6
  9
$SURFU
 70
     6
  9
$SURFV
 70
     6
  9
$FLATLAND
 70
     0
  9
$UCSNAME
  2

  9
$UCSORG
 10
0.0
 20
0.0
 30
0.0
  9
$UCSXDIR
 10
1.0
 20
0.0
 30
0.0
  9
$UCSYDIR
 10
0.0
 20
1.0
 30
0.0
  9
$USERI1
 70
     0
  9
$USERI2
 70
     0
  9
$USERI3
 70
     0
  9
$USERI4
 70
     0
  9
$USERI5
 70
     0
  9
$USERR1
 40
0.0
  9
$USERR2
 40
0.0
  9
$USERR3
 40
0.0
  9
$USERR4
 40
0.0
  9
$USERR5
 40
0.0
  9
$WORLDVIEW
 70
     1
  0
ENDSEC
  0
SECTION
  2
TABLES
  0
TABLE
  2
VPORT
 70
     2
  0
VPORT
  2
*ACTIVE
 70
     0
 10
0.0
 20
0.0
 11
1.0
 21
1.0
 12
6.546302
 22
5.238416
 13
0.0
 23
0.0
 14
0.5
 24
1.0
 15
0.25
 25
0.0
 16
0.0
 26
0.0
 36
1.0
 17
0.0
 27
0.0
 37
0.0
 40
10.018276
 41
1.380723
 42
50.0
 43
0.0
 44
0.0
 50
0.0
 51
0.0
 71
     0
 72
   100
 73
     1
 74
     0
 75
     0
 76
     0
 77
     0
 78
     0
  0
ENDTAB
  0
TABLE
  2
LTYPE
 70
     1
  0
LTYPE
  2
AUSGEZOGEN
 70
    64
  3
Solid line
 72
    65
 73
     0
 40
0.0
  0
ENDTAB
  0
TABLE
  2
LAYER
 70
     8
  0
LAYER
  2
0
 70
     0
 62
     7
  6
AUSGEZOGEN
  0
LAYER
  2
CYAN
 70
    64
 62
     4
  6
AUSGEZOGEN
  0
LAYER
  2
WHITE
 70
    64
 62
     7
  6
AUSGEZOGEN
  0
LAYER
  2
GREEN
 70
    64
 62
     3
  6
AUSGEZOGEN
  0
LAYER
  2
BLUE
 70
    64
 62
     5
  6
AUSGEZOGEN
  0
LAYER
  2
YELLOW
 70
    64
 62
     2
  6
AUSGEZOGEN
  0
LAYER
  2
RED
 70
    64
 62
     1
  6
AUSGEZOGEN
  0
LAYER
  2
MAGENTA
 70
    64
 62
     6
  6
AUSGEZOGEN
  0
ENDTAB
  0
TABLE
  2
STYLE
 70
     1
  0
STYLE
  2
STANDARD
 70
     0
 40
0.0
 41
1.0
 50
0.0
 71
     0
 42
0.2
  3
txt
  4

  0
ENDTAB
  0
TABLE
  2
VIEW
 70
     0
  0
ENDTAB
  0
TABLE
  2
UCS
 70
     0
  0
ENDTAB
  0
TABLE
  2
DWGMGR
 70
     0
  0
ENDTAB
  0
ENDSEC
  0
SECTION
  2
BLOCKS
  0
ENDSEC
  0
SECTION
  2
ENTITIES
  0
LINE
  8
YELLOW
 10
4.94
 20
6.1
 30
0.0
 11
4.81
 21
5.99
 31
0.0
  0
LINE
  8
CYAN
 10
8.65
 20
9.93
 30
0.0
 11
8.65
 21
9.69
 31
0.0
  0
LINE
  8
GREEN
 10
8.19
 20
7.8
 30
0.0
 11
8.35
 21
9.54
 31
0.0
  0
LINE
  8
CYAN
 10
9.35
 20
7.68
 30
0.0
 11
8.96
 21
7.4
 31
0.0
  0
ARC
  8
RED
 10
1.24
 20
1.87
 30
0.0
 40
0.92
 50
239.2
 51
290.77
  0
ARC
  8
YELLOW
 10
1.37
 20
1.8
 30
0.0
 40
0.99
 50
234.2
 51
296.47
  0
ARC
  8
YELLOW
 10
0.11
 20
-0.09
 30
0.0
 40
1.28
 50
58.08
 51
93.06
  0
LINE
  8
CYAN
 10
6.39
 20
5.69
 30
0.0
 11
6.56
 21
5.57
 31
0.0
  0
ARC
  8
BLUE
 10
3.74
 20
3.33
 30
0.0
 40
0.13
 50
207.31
 51
284.24
  0
ARC
  8
BLUE
 10
3.09
 20
2.78
 30
0.0
 40
0.44
 50
8.26
 51
93.17
  0
ARC
  8
BLUE
 10
3.24
 20
3.1
 30
0.0
 40
0.4
 50
38.6
 51
97.81
  0
ARC
  8
BLUE
 10
3.27
 20
3.06
 30
0.0
 40
0.36
 50
37.84
 51
105.97
  0
LINE
  8
BLUE
 10
3.62
 20
3.28
 30
0.0
 11
3.55
 21
3.35
 31
0.0
  0
ARC
  8
BLUE
 10
4.55
 20
4.64
 30
0.0
 40
0.94
 50
63.83
 51
95.65
  0
LINE
  8
YELLOW
 10
4.66
 20
5.7
 30
0.0
 11
4.48
 21
6.4
 31
0.0
  0
LINE
  8
YELLOW
 10
4.45
 20
6.42
 30
0.0
 11
4.52
 21
6.47
 31
0.0
  0
LINE
  8
YELLOW
 10
4.43
 20
6.38
 30
0.0
 11
4.45
 21
6.42
 31
0.0
  0
LINE
  8
YELLOW
 10
4.42
 20
6.34
 30
0.0
 11
4.43
 21
6.38
 31
0.0
  0
LINE
  8
YELLOW
 10
4.6
 20
5.66
 30
0.0
 11
4.42
 21
6.34
 31
0.0
  0
LINE
  8
YELLOW
 10
4.37
 20
6.38
 30
0.0
 11
4.5
 21
6.48
 31
0.0
  0
LINE
  8
YELLOW
 10
4.34
 20
6.33
 30
0.0
 11
4.37
 21
6.38
 31
0.0
  0
LINE
  8
YELLOW
 10
4.33
 20
6.26
 30
0.0
 11
4.34
 21
6.33
 31
0.0
  0
LINE
  8
YELLOW
 10
4.5
 20
5.6
 30
0.0
 11
4.33
 21
6.26
 31
0.0
  0
LINE
  8
YELLOW
 10
4.35
 20
6.4
 30
0.0
 11
4.47
 21
6.5
 31
0.0
  0
LINE
  8
YELLOW
 10
4.28
 20
6.31
 30
0.0
 11
4.35
 21
6.4
 31
0.0
  0
LINE
  8
YELLOW
 10
4.26
 20
6.23
 30
0.0
 11
4.28
 21
6.31
 31
0.0
  0
LINE
  8
YELLOW
 10
4.43
 20
5.55
 30
0.0
 11
4.26
 21
6.23
 31
0.0
  0
LINE
  8
YELLOW
 10
4.35
 20
6.43
 30
0.0
 11
4.47
 21
6.5
 31
0.0
  0
LINE
  8
YELLOW
 10
4.27
 20
6.36
 30
0.0
 11
4.35
 21
6.43
 31
0.0
  0
LINE
  8
YELLOW
 10
4.2
 20
6.24
 30
0.0
 11
4.27
 21
6.36
 31
0.0
  0
LINE
  8
YELLOW
 10
4.36
 20
5.51
 30
0.0
 11
4.2
 21
6.24
 31
0.0
  0
ARC
  8
CYAN
 10
6.97
 20
7.28
 30
0.0
 40
0.35
 50
63.73
 51
119.71
  0
ARC
  8
CYAN
 10
9.19
 20
4.78
 30
0.0
 40
3.69
 50
123.89
 51
138.47
  0
ARC
  8
CYAN
 10
6.77
 20
6.85
 30
0.0
 40
0.51
 50
132.73
 51
192.01
  0
ARC
  8
BLUE
 10
2.23
 20
1.84
 30
0.0
 40
2.08
 50
46.3
 51
102.03
  0
LINE
  8
CYAN
 10
6.32
 20
6.24
 30
0.0
 11
6.26
 21
6.24
 31
0.0
  0
LINE
  8
RED
 10
7.19
 20
5.93
 30
0.0
 11
7.13
 21
5.88
 31
0.0
  0
LINE
  8
RED
 10
7.48
 20
6.18
 30
0.0
 11
7.41
 21
6.14
 31
0.0
  0
LINE
  8
RED
 10
7.51
 20
6.16
 30
0.0
 11
7.48
 21
6.18
 31
0.0
  0
LINE
  8
RED
 10
7.45
 20
6.13
 30
0.0
 11
7.51
 21
6.16
 31
0.0
  0
LINE
  8
RED
 10
7.49
 20
6.1
 30
0.0
 11
7.45
 21
6.13
 31
0.0
  0
LINE
  8
RED
 10
7.54
 20
6.14
 30
0.0
 11
7.49
 21
6.1
 31
0.0
  0
LINE
  8
RED
 10
7.56
 20
6.12
 30
0.0
 11
7.54
 21
6.14
 31
0.0
  0
LINE
  8
RED
 10
7.5
 20
6.08
 30
0.0
 11
7.56
 21
6.12
 31
0.0
  0
ARC
  8
RED
 10
7.09
 20
5.85
 30
0.0
 40
0.05
 50
330.42
 51
114.64
  0
ARC
  8
RED
 10
7.24
 20
5.97
 30
0.0
 40
0.06
 50
349.74
 51
114.01
  0
LINE
  8
RED
 10
5.86
 20
5.04
 30
0.0
 11
5.94
 21
5.12
 31
0.0
  0
ARC
  8
RED
 10
5.71
 20
4.92
 30
0.0
 40
0.07
 50
354.25
 51
111.47
  0
ARC
  8
RED
 10
5.83
 20
4.99
 30
0.0
 40
0.06
 50
11.29
 51
113.25
  0
ARC
  8
RED
 10
5.9
 20
5.03
 30
0.0
 40
0.1
 50
355.66
 51
122.47
  0
LINE
  8
BLUE
 10
4.91
 20
4.05
 30
0.0
 11
4.83
 21
4.19
 31
0.0
  0
LINE
  8
BLUE
 10
4.98
 20
3.88
 30
0.0
 11
4.91
 21
4.05
 31
0.0
  0
ARC
  8
BLUE
 10
3.53
 20
3.16
 30
0.0
 40
1.66
 50
38.14
 51
100.18
  0
LINE
  8
CYAN
 10
6.78
 20
6.61
 30
0.0
 11
6.65
 21
6.62
 31
0.0
  0
LINE
  8
CYAN
 10
6.76
 20
6.69
 30
0.0
 11
6.78
 21
6.61
 31
0.0
  0
ARC
  8
CYAN
 10
6.95
 20
5.6
 30
0.0
 40
1.16
 50
26.54
 51
64.31
  0
LINE
  8
CYAN
 10
8.91
 20
7.73
 30
0.0
 11
8.52
 21
7.48
 31
0.0
  0
ARC
  8
BLUE
 10
3.24
 20
3.07
 30
0.0
 40
0.31
 50
26.76
 51
109.68
  0
ARC
  8
BLUE
 10
3.7
 20
2.89
 30
0.0
 40
0.18
 50
196.14
 51
298.82
  0
ARC
  8
GREEN
 10
6.66
 20
5.45
 30
0.0
 40
1.35
 50
20.06
 51
109.87
  0
ARC
  8
WHITE
 10
3.43
 20
2.12
 30
0.0
 40
0.07
 50
168.05
 51
283.62
  0
ARC
  8
BLUE
 10
3.83
 20
3.08
 30
0.0
 40
0.19
 50
208.12
 51
271.83
  0
ARC
  8
BLUE
 10
3.9
 20
3.49
 30
0.0
 40
0.41
 50
210.58
 51
256.94
  0
ARC
  8
WHITE
 10
3.35
 20
2.64
 30
0.0
 40
0.12
 50
359.37
 51
105.76
  0
ARC
  8
BLUE
 10
8.62
 20
7.36
 30
0.0
 40
0.42
 50
58.31
 51
100.18
  0
ARC
  8
BLUE
 10
8.73
 20
7.45
 30
0.0
 40
0.42
 50
43.68
 51
107.1
  0
ARC
  8
BLUE
 10
8.85
 20
7.47
 30
0.0
 40
0.51
 50
33.98
 51
112.44
  0
ARC
  8
BLUE
 10
8.95
 20
7.5
 30
0.0
 40
0.55
 50
38.6
 51
120.26
  0
ARC
  8
BLUE
 10
8.54
 20
7.54
 30
0.0
 40
0.16
 50
43.8
 51
101.62
  0
ARC
  8
CYAN
 10
8.49
 20
7.54
 30
0.0
 40
0.1
 50
39.48
 51
131.46
  0
LINE
  8
CYAN
 10
8.52
 20
7.48
 30
0.0
 11
8.47
 21
7.54
 31
0.0
  0
LINE
  8
CYAN
 10
9.41
 20
7.66
 30
0.0
 11
9.35
 21
7.68
 31
0.0
  0
ARC
  8
CYAN
 10
9.03
 20
6.88
 30
0.0
 40
0.86
 50
68.12
 51
122.61
  0
ARC
  8
CYAN
 10
9.48
 20
7.68
 30
0.0
 40
0.19
 50
30.02
 51
119.41
  0
ARC
  8
WHITE
 10
0.8
 20
2.21
 30
0.0
 40
0.98
 50
254.92
 51
287.99
  0
ARC
  8
WHITE
 10
0.6
 20
1.86
 30
0.0
 40
0.6
 50
219.77
 51
264.98
  0
LINE
  8
RED
 10
0.09
 20
1.24
 30
0.0
 11
0.06
 21
1.24
 31
0.0
  0
LINE
  8
RED
 10
0.13
 20
1.24
 30
0.0
 11
0.09
 21
1.24
 31
0.0
  0
LINE
  8
RED
 10
0.17
 20
1.24
 30
0.0
 11
0.13
 21
1.24
 31
0.0
  0
LINE
  8
RED
 10
0.26
 20
1.22
 30
0.0
 11
0.17
 21
1.24
 31
0.0
  0
LINE
  8
RED
 10
0.39
 20
1.19
 30
0.0
 11
0.26
 21
1.22
 31
0.0
  0
LINE
  8
RED
 10
0.53
 20
1.16
 30
0.0
 11
0.39
 21
1.19
 31
0.0
  0
LINE
  8
RED
 10
0.64
 20
1.13
 30
0.0
 11
0.53
 21
1.16
 31
0.0
  0
LINE
  8
RED
 10
0.77
 20
1.08
 30
0.0
 11
0.64
 21
1.13
 31
0.0
  0
LINE
  8
CYAN
 10
4.94
 20
6.1
 30
0.0
 11
4.97
 21
5.98
 31
0.0
  0
LINE
  8
CYAN
 10
5.13
 20
6.49
 30
0.0
 11
5.18
 21
6.4
 31
0.0
  0
LINE
  8
CYAN
 10
5.35
 20
6.46
 30
0.0
 11
5.41
 21
6.33
 31
0.0
  0
ARC
  8
GREEN
 10
5.56
 20
5.77
 30
0.0
 40
0.44
 50
54.84
 51
117.61
  0
LINE
  8
YELLOW
 10
4.65
 20
6.58
 30
0.0
 11
4.63
 21
6.59
 31
0.0
  0
LINE
  8
CYAN
 10
8.08
 20
9.62
 30
0.0
 11
8.08
 21
9.63
 31
0.0
  0
LINE
  8
CYAN
 10
8.63
 20
9.94
 30
0.0
 11
8.03
 21
9.61
 31
0.0
  0
LINE
  8
CYAN
 10
8.66
 20
9.93
 30
0.0
 11
8.63
 21
9.94
 31
0.0
  0
LINE
  8
CYAN
 10
8.34
 20
9.78
 30
0.0
 11
8.36
 21
9.77
 31
0.0
  0
ARC
  8
CYAN
 10
6.91
 20
7.02
 30
0.0
 40
0.5
 50
68.98
 51
123.17
  0
ARC
  8
CYAN
 10
6.81
 20
7.04
 30
0.0
 40
0.41
 50
55.78
 51
137.04
  0
ARC
  8
CYAN
 10
6.71
 20
6.77
 30
0.0
 40
0.54
 50
59.56
 51
121.6
  0
ARC
  8
CYAN
 10
6.52
 20
6.54
 30
0.0
 40
0.47
 50
61.41
 51
123.3
  0
ARC
  8
CYAN
 10
7.12
 20
7.61
 30
0.0
 40
0.17
 50
64.39
 51
128.0
  0
ARC
  8
CYAN
 10
7.06
 20
7.36
 30
0.0
 40
0.34
 50
72.1
 51
131.87
  0
ARC
  8
CYAN
 10
6.61
 20
6.61
 30
0.0
 40
0.54
 50
54.77
 51
124.17
  0
ARC
  8
GREEN
 10
8.74
 20
7.53
 30
0.0
 40
0.11
 50
327.62
 51
238.21
  0
ARC
  8
MAGENTA
 10
8.38
 20
7.01
 30
0.0
 40
0.2
 50
142.76
 51
293.72
  0
ARC
  8
MAGENTA
 10
8.8
 20
7.27
 30
0.0
 40
0.2
 50
333.04
 51
128.42
  0
CIRCLE
  8
GREEN
 10
9.0
 20
7.58
 30
0.0
 40
0.12
  0
ARC
  8
GREEN
 10
9.49
 20
7.2
 30
0.0
 40
0.2
 50
31.13
 51
330.9
  0
ARC
  8
MAGENTA
 10
8.62
 20
6.64
 30
0.0
 40
0.18
 50
125.89
 51
313.67
  0
ARC
  8
CYAN
 10
7.92
 20
6.4
 30
0.0
 40
0.67
 50
354.04
 51
101.22
  0
ARC
  8
YELLOW
 10
8.2
 20
6.47
 30
0.0
 40
0.23
 50
240.57
 51
166.49
  0
ARC
  8
RED
 10
7.88
 20
6.78
 30
0.0
 40
0.22
 50
286.31
 51
199.02
  0
ARC
  8
CYAN
 10
7.57
 20
6.19
 30
0.0
 40
0.53
 50
355.88
 51
102.24
  0
ARC
  8
BLUE
 10
9.58
 20
6.86
 30
0.0
 40
0.14
 50
338.09
 51
44.87
  0
ARC
  8
BLUE
 10
9.66
 20
6.88
 30
0.0
 40
0.18
 50
315.13
 51
66.36
  0
ARC
  8
BLUE
 10
9.64
 20
6.89
 30
0.0
 40
0.27
 50
336.16
 51
59.08
  0
ARC
  8
BLUE
 10
9.68
 20
6.96
 30
0.0
 40
0.33
 50
335.98
 51
59.67
  0
ARC
  8
BLUE
 10
9.78
 20
7.02
 30
0.0
 40
0.31
 50
325.1
 51
71.52
  0
ARC
  8
BLUE
 10
9.77
 20
7.05
 30
0.0
 40
0.4
 50
335.87
 51
71.5
  0
ARC
  8
YELLOW
 10
-0.04
 20
0.13
 30
0.0
 40
0.87
 50
23.3
 51
86.77
  0
ARC
  8
YELLOW
 10
0.22
 20
0.4
 30
0.0
 40
0.76
 50
8.04
 51
104.29
  0
ARC
  8
YELLOW
 10
0.06
 20
0.25
 30
0.0
 40
0.8
 50
16.79
 51
93.33
  0
ARC
  8
RED
 10
7.67
 20
4.53
 30
0.0
 40
0.21
 50
28.39
 51
74.54
  0
ARC
  8
RED
 10
7.45
 20
4.47
 30
0.0
 40
0.08
 50
67.81
 51
258.3
  0
ARC
  8
RED
 10
8.25
 20
4.83
 30
0.0
 40
0.08
 50
174.03
 51
248.82
  0
ARC
  8
RED
 10
7.87
 20
4.81
 30
0.0
 40
0.09
 50
39.01
 51
132.45
  0
ARC
  8
RED
 10
7.7
 20
4.37
 30
0.0
 40
0.08
 50
25.85
 51
200.5
  0
ARC
  8
RED
 10
7.69
 20
4.4
 30
0.0
 40
0.25
 50
15.93
 51
208.4
  0
ARC
  8
RED
 10
8.45
 20
4.84
 30
0.0
 40
0.08
 50
218.74
 51
305.23
  0
ARC
  8
RED
 10
7.92
 20
4.94
 30
0.0
 40
0.1
 50
43.21
 51
186.85
  0
ARC
  8
RED
 10
8.43
 20
4.86
 30
0.0
 40
0.08
 50
35.31
 51
178.34
  0
ARC
  8
YELLOW
 10
0.53
 20
1.0
 30
0.0
 40
0.52
 50
184.17
 51
272.24
  0
LINE
  8
WHITE
 10
0.16
 20
1.56
 30
0.0
 11
1.08
 21
3.1
 31
0.0
  0
LINE
  8
WHITE
 10
0.03
 20
1.14
 30
0.0
 11
0.16
 21
1.56
 31
0.0
  0
LINE
  8
YELLOW
 10
0.01
 20
0.96
 30
0.0
 11
0.03
 21
1.14
 31
0.0
  0
LINE
  8
YELLOW
 10
0.82
 20
0.48
 30
0.0
 11
0.54
 21
0.48
 31
0.0
  0
LINE
  8
RED
 10
0.39
 20
1.23
 30
0.0
 11
0.08
 21
1.3
 31
0.0
  0
LINE
  8
RED
 10
0.65
 20
1.17
 30
0.0
 11
0.39
 21
1.23
 31
0.0
  0
LINE
  8
RED
 10
1.04
 20
1.05
 30
0.0
 11
0.65
 21
1.17
 31
0.0
  0
LINE
  8
RED
 10
1.21
 20
1.05
 30
0.0
 11
1.04
 21
1.05
 31
0.0
  0
LINE
  8
RED
 10
1.52
 20
1.1
 30
0.0
 11
1.21
 21
1.05
 31
0.0
  0
LINE
  8
WHITE
 10
1.11
 20
1.27
 30
0.0
 11
1.24
 21
1.33
 31
0.0
  0
LINE
  8
WHITE
 10
1.12
 20
1.41
 30
0.0
 11
1.33
 21
1.54
 31
0.0
  0
LINE
  8
WHITE
 10
0.99
 20
1.37
 30
0.0
 11
1.12
 21
1.41
 31
0.0
  0
LINE
  8
WHITE
 10
0.74
 20
1.33
 30
0.0
 11
0.99
 21
1.37
 31
0.0
  0
LINE
  8
WHITE
 10
0.62
 20
1.32
 30
0.0
 11
0.74
 21
1.33
 31
0.0
  0
LINE
  8
WHITE
 10
0.44
 20
1.37
 30
0.0
 11
0.62
 21
1.32
 31
0.0
  0
LINE
  8
WHITE
 10
0.29
 20
1.42
 30
0.0
 11
0.44
 21
1.37
 31
0.0
  0
LINE
  8
WHITE
 10
0.16
 20
1.55
 30
0.0
 11
0.29
 21
1.42
 31
0.0
  0
LINE
  8
WHITE
 10
0.76
 20
1.35
 30
0.0
 11
0.86
 21
1.53
 31
0.0
  0
LINE
  8
WHITE
 10
0.33
 20
1.46
 30
0.0
 11
0.76
 21
1.35
 31
0.0
  0
LINE
  8
WHITE
 10
0.44
 20
1.62
 30
0.0
 11
0.33
 21
1.46
 31
0.0
  0
LINE
  8
WHITE
 10
0.87
 20
1.53
 30
0.0
 11
0.44
 21
1.62
 31
0.0
  0
LINE
  8
WHITE
 10
1.08
 20
1.95
 30
0.0
 11
1.17
 21
2.08
 31
0.0
  0
LINE
  8
WHITE
 10
0.71
 20
2.04
 30
0.0
 11
1.08
 21
1.95
 31
0.0
  0
LINE
  8
WHITE
 10
0.78
 20
2.15
 30
0.0
 11
0.71
 21
2.04
 31
0.0
  0
LINE
  8
WHITE
 10
1.17
 20
2.08
 30
0.0
 11
0.78
 21
2.15
 31
0.0
  0
LINE
  8
YELLOW
 10
1.4
 20
0.64
 30
0.0
 11
1.82
 21
0.8
 31
0.0
  0
LINE
  8
YELLOW
 10
1.25
 20
0.59
 30
0.0
 11
1.4
 21
0.64
 31
0.0
  0
LINE
  8
YELLOW
 10
1.04
 20
0.52
 30
0.0
 11
1.25
 21
0.59
 31
0.0
  0
LINE
  8
YELLOW
 10
0.82
 20
0.48
 30
0.0
 11
1.04
 21
0.52
 31
0.0
  0
LINE
  8
CYAN
 10
6.32
 20
6.24
 30
0.0
 11
5.03
 21
5.34
 31
0.0
  0
LINE
  8
CYAN
 10
6.92
 20
6.58
 30
0.0
 11
7.08
 21
6.58
 31
0.0
  0
LINE
  8
CYAN
 10
9.2
 20
7.15
 30
0.0
 11
8.86
 21
7.5
 31
0.0
  0
POINT
  8
CYAN
 10
9.47
 20
7.66
 30
0.0
  0
POINT
  8
CYAN
 10
9.56
 20
7.71
 30
0.0
  0
POINT
  8
CYAN
 10
9.64
 20
7.75
 30
0.0
  0
POINT
  8
CYAN
 10
9.64
 20
7.5
 30
0.0
  0
POINT
  8
CYAN
 10
9.73
 20
7.55
 30
0.0
  0
POINT
  8
CYAN
 10
9.81
 20
7.61
 30
0.0
  0
LINE
  8
CYAN
 10
7.97
 20
5.85
 30
0.0
 11
7.93
 21
5.91
 31
0.0
  0
LINE
  8
CYAN
 10
6.99
 20
5.62
 30
0.0
 11
5.83
 21
4.8
 31
0.0
  0
LINE
  8
CYAN
 10
6.53
 20
5.8
 30
0.0
 11
5.27
 21
4.91
 31
0.0
  0
LINE
  8
CYAN
 10
6.4
 20
5.98
 30
0.0
 11
5.12
 21
5.16
 31
0.0
  0
LINE
  8
CYAN
 10
5.62
 20
6.43
 30
0.0
 11
5.34
 21
6.22
 31
0.0
  0
LINE
  8
CYAN
 10
4.85
 20
6.02
 30
0.0
 11
4.94
 21
5.88
 31
0.0
  0
LINE
  8
YELLOW
 10
4.81
 20
5.99
 30
0.0
 11
4.89
 21
5.85
 31
0.0
  0
LINE
  8
CYAN
 10
5.21
 20
6.06
 30
0.0
 11
4.86
 21
6.24
 31
0.0
  0
LINE
  8
CYAN
 10
4.87
 20
6.32
 30
0.0
 11
4.83
 21
6.42
 31
0.0
  0
LINE
  8
YELLOW
 10
4.54
 20
6.46
 30
0.0
 11
4.48
 21
6.49
 31
0.0
  0
LINE
  8
CYAN
 10
4.83
 20
6.63
 30
0.0
 11
4.68
 21
6.63
 31
0.0
  0
LINE
  8
CYAN
 10
4.8
 20
6.54
 30
0.0
 11
4.83
 21
6.63
 31
0.0
  0
LINE
  8
CYAN
 10
11.59
 20
5.5
 30
0.0
 11
11.15
 21
5.17
 31
0.0
  0
LINE
  8
CYAN
 10
8.69
 20
6.89
 30
0.0
 11
8.64
 21
6.94
 31
0.0
  0
LINE
  8
CYAN
 10
8.74
 20
4.75
 30
0.0
 11
8.73
 21
4.8
 31
0.0
  0
LINE
  8
CYAN
 10
8.87
 20
4.9
 30
0.0
 11
8.82
 21
4.76
 31
0.0
  0
LINE
  8
CYAN
 10
8.89
 20
4.77
 30
0.0
 11
8.87
 21
4.9
 31
0.0
  0
LINE
  8
CYAN
 10
9.0
 20
4.99
 30
0.0
 11
8.98
 21
4.88
 31
0.0
  0
LINE
  8
CYAN
 10
9.06
 20
4.91
 30
0.0
 11
9.0
 21
4.99
 31
0.0
  0
LINE
  8
CYAN
 10
9.17
 20
5.1
 30
0.0
 11
9.11
 21
4.89
 31
0.0
  0
LINE
  8
CYAN
 10
9.21
 20
4.89
 30
0.0
 11
9.17
 21
5.1
 31
0.0
  0
LINE
  8
CYAN
 10
9.38
 20
4.89
 30
0.0
 11
9.37
 21
4.85
 31
0.0
  0
LINE
  8
CYAN
 10
9.41
 20
4.85
 30
0.0
 11
9.38
 21
4.89
 31
0.0
  0
LINE
  8
CYAN
 10
9.58
 20
5.03
 30
0.0
 11
9.51
 21
4.87
 31
0.0
  0
LINE
  8
CYAN
 10
9.61
 20
4.89
 30
0.0
 11
9.58
 21
5.03
 31
0.0
  0
LINE
  8
CYAN
 10
9.28
 20
5.17
 30
0.0
 11
9.23
 21
5.11
 31
0.0
  0
LINE
  8
CYAN
 10
9.32
 20
5.11
 30
0.0
 11
9.28
 21
5.17
 31
0.0
  0
LINE
  8
CYAN
 10
9.46
 20
5.3
 30
0.0
 11
9.38
 21
5.11
 31
0.0
  0
LINE
  8
CYAN
 10
9.49
 20
5.09
 30
0.0
 11
9.46
 21
5.3
 31
0.0
  0
LINE
  8
CYAN
 10
9.71
 20
5.12
 30
0.0
 11
9.68
 21
5.02
 31
0.0
  0
LINE
  8
CYAN
 10
9.73
 20
5.05
 30
0.0
 11
9.71
 21
5.12
 31
0.0
  0
LINE
  8
CYAN
 10
9.86
 20
5.22
 30
0.0
 11
9.81
 21
5.05
 31
0.0
  0
LINE
  8
CYAN
 10
9.92
 20
5.0
 30
0.0
 11
9.86
 21
5.22
 31
0.0
  0
LINE
  8
CYAN
 10
10.16
 20
5.07
 30
0.0
 11
10.13
 21
5.0
 31
0.0
  0
LINE
  8
CYAN
 10
10.18
 20
5.0
 30
0.0
 11
10.16
 21
5.07
 31
0.0
  0
LINE
  8
CYAN
 10
10.25
 20
5.02
 30
0.0
 11
10.27
 21
5.15
 31
0.0
  0
LINE
  8
CYAN
 10
10.34
 20
5.04
 30
0.0
 11
10.27
 21
5.15
 31
0.0
  0
LINE
  8
CYAN
 10
9.61
 20
5.4
 30
0.0
 11
9.6
 21
5.3
 31
0.0
  0
LINE
  8
CYAN
 10
9.66
 20
5.32
 30
0.0
 11
9.61
 21
5.4
 31
0.0
  0
LINE
  8
CYAN
 10
9.76
 20
5.5
 30
0.0
 11
9.69
 21
5.26
 31
0.0
  0
LINE
  8
CYAN
 10
9.83
 20
5.3
 30
0.0
 11
9.76
 21
5.5
 31
0.0
  0
LINE
  8
CYAN
 10
9.98
 20
5.31
 30
0.0
 11
9.94
 21
5.23
 31
0.0
  0
LINE
  8
CYAN
 10
10.05
 20
5.21
 30
0.0
 11
9.98
 21
5.31
 31
0.0
  0
LINE
  8
CYAN
 10
10.15
 20
5.43
 30
0.0
 11
10.18
 21
5.2
 31
0.0
  0
LINE
  8
CYAN
 10
10.11
 20
5.26
 30
0.0
 11
10.15
 21
5.43
 31
0.0
  0
LINE
  8
CYAN
 10
10.46
 20
5.28
 30
0.0
 11
10.46
 21
5.16
 31
0.0
  0
LINE
  8
CYAN
 10
10.5
 20
5.14
 30
0.0
 11
10.46
 21
5.28
 31
0.0
  0
LINE
  8
CYAN
 10
10.57
 20
5.36
 30
0.0
 11
10.56
 21
5.14
 31
0.0
  0
LINE
  8
CYAN
 10
10.67
 20
5.14
 30
0.0
 11
10.57
 21
5.36
 31
0.0
  0
LINE
  8
CYAN
 10
10.83
 20
5.18
 30
0.0
 11
10.8
 21
5.12
 31
0.0
  0
LINE
  8
CYAN
 10
10.87
 20
5.13
 30
0.0
 11
10.83
 21
5.18
 31
0.0
  0
LINE
  8
CYAN
 10
10.97
 20
5.29
 30
0.0
 11
10.93
 21
5.21
 31
0.0
  0
LINE
  8
CYAN
 10
11.02
 20
5.15
 30
0.0
 11
10.97
 21
5.29
 31
0.0
  0
LINE
  8
CYAN
 10
9.64
 20
5.81
 30
0.0
 11
9.36
 21
5.57
 31
0.0
  0
LINE
  8
CYAN
 10
9.68
 20
5.62
 30
0.0
 11
9.64
 21
5.81
 31
0.0
  0
LINE
  8
CYAN
 10
9.47
 20
5.66
 30
0.0
 11
9.36
 21
5.85
 31
0.0
  0
LINE
  8
CYAN
 10
9.89
 20
5.58
 30
0.0
 11
9.47
 21
5.66
 31
0.0
  0
LINE
  8
CYAN
 10
9.89
 20
5.58
 30
0.0
 11
9.88
 21
5.5
 31
0.0
  0
LINE
  8
CYAN
 10
9.98
 20
5.48
 30
0.0
 11
9.89
 21
5.58
 31
0.0
  0
LINE
  8
CYAN
 10
10.11
 20
5.73
 30
0.0
 11
10.09
 21
5.5
 31
0.0
  0
LINE
  8
CYAN
 10
10.16
 20
5.53
 30
0.0
 11
10.11
 21
5.73
 31
0.0
  0
LINE
  8
CYAN
 10
10.31
 20
5.55
 30
0.0
 11
10.31
 21
5.41
 31
0.0
  0
LINE
  8
CYAN
 10
10.37
 20
5.41
 30
0.0
 11
10.31
 21
5.55
 31
0.0
  0
LINE
  8
CYAN
 10
10.49
 20
5.67
 30
0.0
 11
10.43
 21
5.41
 31
0.0
  0
LINE
  8
CYAN
 10
10.54
 20
5.46
 30
0.0
 11
10.49
 21
5.67
 31
0.0
  0
LINE
  8
CYAN
 10
10.75
 20
5.49
 30
0.0
 11
10.71
 21
5.37
 31
0.0
  0
LINE
  8
CYAN
 10
10.78
 20
5.37
 30
0.0
 11
10.75
 21
5.49
 31
0.0
  0
LINE
  8
CYAN
 10
10.92
 20
5.6
 30
0.0
 11
10.86
 21
5.37
 31
0.0
  0
LINE
  8
CYAN
 10
10.95
 20
5.41
 30
0.0
 11
10.92
 21
5.6
 31
0.0
  0
LINE
  8
CYAN
 10
11.07
 20
5.37
 30
0.0
 11
11.03
 21
5.32
 31
0.0
  0
LINE
  8
CYAN
 10
11.12
 20
5.32
 30
0.0
 11
11.07
 21
5.37
 31
0.0
  0
LINE
  8
CYAN
 10
11.29
 20
5.55
 30
0.0
 11
11.18
 21
5.32
 31
0.0
  0
LINE
  8
CYAN
 10
11.27
 20
5.34
 30
0.0
 11
11.29
 21
5.55
 31
0.0
  0
LINE
  8
CYAN
 10
11.38
 20
5.34
 30
0.0
 11
11.33
 21
5.28
 31
0.0
  0
LINE
  8
CYAN
 10
11.44
 20
5.25
 30
0.0
 11
11.38
 21
5.34
 31
0.0
  0
LINE
  8
CYAN
 10
11.59
 20
5.5
 30
0.0
 11
11.48
 21
5.28
 31
0.0
  0
LINE
  8
CYAN
 10
11.59
 20
5.32
 30
0.0
 11
11.59
 21
5.5
 31
0.0
  0
LINE
  8
CYAN
 10
11.87
 20
5.45
 30
0.0
 11
11.76
 21
5.25
 31
0.0
  0
LINE
  8
CYAN
 10
11.89
 20
5.27
 30
0.0
 11
11.87
 21
5.45
 31
0.0
  0
LINE
  8
GREEN
 10
4.83
 20
6.63
 30
0.0
 11
4.92
 21
6.74
 31
0.0
  0
LINE
  8
GREEN
 10
5.1
 20
6.72
 30
0.0
 11
4.92
 21
6.62
 31
0.0
  0
LINE
  8
GREEN
 10
5.03
 20
6.61
 30
0.0
 11
5.1
 21
6.72
 31
0.0
  0
LINE
  8
GREEN
 10
5.23
 20
6.71
 30
0.0
 11
5.07
 21
6.6
 31
0.0
  0
LINE
  8
GREEN
 10
5.19
 20
6.59
 30
0.0
 11
5.23
 21
6.71
 31
0.0
  0
LINE
  8
GREEN
 10
5.41
 20
6.69
 30
0.0
 11
5.27
 21
6.58
 31
0.0
  0
LINE
  8
GREEN
 10
5.35
 20
6.57
 30
0.0
 11
5.41
 21
6.69
 31
0.0
  0
LINE
  8
GREEN
 10
5.6
 20
6.67
 30
0.0
 11
5.44
 21
6.56
 31
0.0
  0
LINE
  8
GREEN
 10
5.52
 20
6.55
 30
0.0
 11
5.6
 21
6.67
 31
0.0
  0
LINE
  8
GREEN
 10
5.8
 20
6.65
 30
0.0
 11
5.61
 21
6.54
 31
0.0
  0
LINE
  8
GREEN
 10
5.72
 20
6.53
 30
0.0
 11
5.8
 21
6.65
 31
0.0
  0
LINE
  8
GREEN
 10
5.96
 20
6.64
 30
0.0
 11
5.77
 21
6.52
 31
0.0
  0
LINE
  8
GREEN
 10
8.31
 20
7.82
 30
0.0
 11
8.18
 21
7.8
 31
0.0
  0
LINE
  8
GREEN
 10
8.63
 20
8.07
 30
0.0
 11
8.31
 21
7.82
 31
0.0
  0
LINE
  8
YELLOW
 10
7.86
 20
9.33
 30
0.0
 11
7.0
 21
6.84
 31
0.0
  0
LINE
  8
YELLOW
 10
7.24
 20
6.9
 30
0.0
 11
6.89
 21
6.97
 31
0.0
  0
LINE
  8
YELLOW
 10
7.26
 20
7.17
 30
0.0
 11
6.98
 21
7.21
 31
0.0
  0
LINE
  8
YELLOW
 10
7.34
 20
7.41
 30
0.0
 11
7.07
 21
7.45
 31
0.0
  0
LINE
  8
YELLOW
 10
7.42
 20
7.64
 30
0.0
 11
7.16
 21
7.68
 31
0.0
  0
LINE
  8
YELLOW
 10
7.5
 20
7.89
 30
0.0
 11
7.25
 21
7.91
 31
0.0
  0
LINE
  8
YELLOW
 10
7.59
 20
8.14
 30
0.0
 11
7.35
 21
8.17
 31
0.0
  0
LINE
  8
YELLOW
 10
7.66
 20
8.37
 30
0.0
 11
7.44
 21
8.42
 31
0.0
  0
LINE
  8
YELLOW
 10
7.75
 20
8.62
 30
0.0
 11
7.52
 21
8.62
 31
0.0
  0
LINE
  8
YELLOW
 10
7.82
 20
8.85
 30
0.0
 11
7.61
 21
8.88
 31
0.0
  0
LINE
  8
YELLOW
 10
7.9
 20
9.08
 30
0.0
 11
7.7
 21
9.1
 31
0.0
  0
LINE
  8
YELLOW
 10
7.99
 20
9.34
 30
0.0
 11
7.8
 21
9.33
 31
0.0
  0
LINE
  8
CYAN
 10
8.23
 20
9.38
 30
0.0
 11
7.99
 21
9.36
 31
0.0
  0
LINE
  8
CYAN
 10
8.21
 20
9.2
 30
0.0
 11
7.92
 21
9.15
 31
0.0
  0
LINE
  8
CYAN
 10
8.18
 20
9.01
 30
0.0
 11
7.86
 21
8.97
 31
0.0
  0
LINE
  8
CYAN
 10
8.15
 20
8.83
 30
0.0
 11
7.81
 21
8.81
 31
0.0
  0
LINE
  8
CYAN
 10
7.83
 20
8.64
 30
0.0
 11
7.75
 21
8.64
 31
0.0
  0
LINE
  8
CYAN
 10
8.11
 20
8.55
 30
0.0
 11
7.7
 21
8.49
 31
0.0
  0
LINE
  8
CYAN
 10
7.76
 20
8.39
 30
0.0
 11
7.66
 21
8.37
 31
0.0
  0
LINE
  8
CYAN
 10
7.72
 20
8.21
 30
0.0
 11
7.6
 21
8.19
 31
0.0
  0
LINE
  8
CYAN
 10
8.05
 20
8.12
 30
0.0
 11
7.55
 21
8.03
 31
0.0
  0
LINE
  8
CYAN
 10
8.02
 20
7.96
 30
0.0
 11
7.48
 21
7.83
 31
0.0
  0
LINE
  8
CYAN
 10
8.0
 20
7.75
 30
0.0
 11
7.42
 21
7.64
 31
0.0
  0
LINE
  8
CYAN
 10
7.83
 20
7.55
 30
0.0
 11
7.36
 21
7.46
 31
0.0
  0
LINE
  8
CYAN
 10
7.8
 20
7.36
 30
0.0
 11
7.29
 21
7.25
 31
0.0
  0
LINE
  8
CYAN
 10
7.41
 20
7.08
 30
0.0
 11
7.26
 21
7.07
 31
0.0
  0
LINE
  8
CYAN
 10
6.3
 20
6.8
 30
0.0
 11
6.29
 21
6.75
 31
0.0
  0
LINE
  8
CYAN
 10
6.36
 20
6.81
 30
0.0
 11
6.3
 21
6.8
 31
0.0
  0
LINE
  8
CYAN
 10
6.58
 20
6.88
 30
0.0
 11
6.36
 21
6.81
 31
0.0
  0
LINE
  8
CYAN
 10
6.75
 20
6.95
 30
0.0
 11
6.58
 21
6.88
 31
0.0
  0
LINE
  8
CYAN
 10
6.92
 20
7.06
 30
0.0
 11
6.75
 21
6.95
 31
0.0
  0
LINE
  8
CYAN
 10
8.59
 20
6.33
 30
0.0
 11
8.43
 21
6.43
 31
0.0
  0
LINE
  8
RED
 10
7.15
 20
5.94
 30
0.0
 11
7.07
 21
5.89
 31
0.0
  0
LINE
  8
RED
 10
5.78
 20
4.91
 30
0.0
 11
5.87
 21
4.7
 31
0.0
  0
LINE
  8
CYAN
 10
6.4
 20
5.98
 30
0.0
 11
6.34
 21
6.15
 31
0.0
  0
LINE
  8
CYAN
 10
6.34
 20
6.15
 30
0.0
 11
6.32
 21
6.24
 31
0.0
  0
LINE
  8
CYAN
 10
5.05
 20
5.3
 30
0.0
 11
6.34
 21
6.15
 31
0.0
  0
LINE
  8
CYAN
 10
9.16
 20
7.73
 30
0.0
 11
8.86
 21
7.5
 31
0.0
  0
LINE
  8
BLUE
 10
9.2
 20
7.36
 30
0.0
 11
9.06
 21
7.48
 31
0.0
  0
LINE
  8
BLUE
 10
9.32
 20
7.48
 30
0.0
 11
9.2
 21
7.57
 31
0.0
  0
LINE
  8
BLUE
 10
9.13
 20
7.29
 30
0.0
 11
9.32
 21
7.48
 31
0.0
  0
LINE
  8
BLUE
 10
9.0
 20
7.43
 30
0.0
 11
9.13
 21
7.29
 31
0.0
  0
LINE
  8
BLUE
 10
9.2
 20
7.57
 30
0.0
 11
9.0
 21
7.43
 31
0.0
  0
LINE
  8
BLUE
 10
8.68
 20
7.98
 30
0.0
 11
8.47
 21
7.64
 31
0.0
  0
LINE
  8
CYAN
 10
9.73
 20
7.22
 30
0.0
 11
9.73
 21
7.16
 31
0.0
  0
LINE
  8
CYAN
 10
10.11
 20
6.21
 30
0.0
 11
9.66
 21
5.98
 31
0.0
  0
LINE
  8
CYAN
 10
10.09
 20
6.22
 30
0.0
 11
9.36
 21
5.85
 31
0.0
  0
LINE
  8
GREEN
 10
12.99
 20
5.48
 30
0.0
 11
10.09
 21
6.22
 31
0.0
  0
CIRCLE
  8
BLUE
 10
3.27
 20
2.35
 30
0.0
 40
0.2
  0
CIRCLE
  8
BLUE
 10
3.28
 20
2.34
 30
0.0
 40
0.06
  0
LINE
  8
RED
 10
7.93
 20
4.93
 30
0.0
 11
7.95
 21
4.82
 31
0.0
  0
LINE
  8
RED
 10
7.82
 20
4.93
 30
0.0
 11
7.93
 21
4.93
 31
0.0
  0
LINE
  8
RED
 10
7.8
 20
4.77
 30
0.0
 11
7.82
 21
4.93
 31
0.0
  0
LINE
  8
RED
 10
7.78
 20
4.77
 30
0.0
 11
7.54
 21
4.61
 31
0.0
  0
LINE
  8
RED
 10
7.84
 20
4.77
 30
0.0
 11
7.78
 21
4.77
 31
0.0
  0
LINE
  8
RED
 10
7.88
 20
4.72
 30
0.0
 11
7.84
 21
4.77
 31
0.0
  0
LINE
  8
RED
 10
7.88
 20
4.66
 30
0.0
 11
7.88
 21
4.72
 31
0.0
  0
LINE
  8
RED
 10
7.83
 20
4.61
 30
0.0
 11
7.88
 21
4.66
 31
0.0
  0
LINE
  8
RED
 10
8.14
 20
4.98
 30
0.0
 11
7.9
 21
4.81
 31
0.0
  0
LINE
  8
RED
 10
8.18
 20
4.93
 30
0.0
 11
8.14
 21
4.98
 31
0.0
  0
LINE
  8
RED
 10
8.0
 20
4.82
 30
0.0
 11
8.18
 21
4.93
 31
0.0
  0
LINE
  8
RED
 10
8.36
 20
4.86
 30
0.0
 11
8.38
 21
4.79
 31
0.0
  0
LINE
  8
RED
 10
7.8
 20
4.8
 30
0.0
 11
8.36
 21
4.86
 31
0.0
  0
LINE
  8
RED
 10
8.03
 20
4.72
 30
0.0
 11
7.97
 21
4.82
 31
0.0
  0
LINE
  8
RED
 10
8.38
 20
4.79
 30
0.0
 11
7.88
 21
4.69
 31
0.0
  0
LINE
  8
CYAN
 10
12.61
 20
5.43
 30
0.0
 11
9.63
 21
5.98
 31
0.0
  0
LINE
  8
GREEN
 10
11.62
 20
5.83
 30
0.0
 11
11.35
 21
5.66
 31
0.0
  0
LINE
  8
GREEN
 10
11.44
 20
5.64
 30
0.0
 11
11.62
 21
5.83
 31
0.0
  0
LINE
  8
GREEN
 10
12.14
 20
5.7
 30
0.0
 11
11.91
 21
5.56
 31
0.0
  0
LINE
  8
GREEN
 10
11.99
 20
5.54
 30
0.0
 11
12.14
 21
5.7
 31
0.0
  0
LINE
  8
MAGENTA
 10
8.67
 20
7.43
 30
0.0
 11
8.22
 21
7.13
 31
0.0
  0
LINE
  8
RED
 10
7.07
 20
5.78
 30
0.0
 11
7.14
 21
5.57
 31
0.0
  0
LINE
  8
CYAN
 10
6.37
 20
6.06
 30
0.0
 11
7.12
 21
5.92
 31
0.0
  0
LINE
  8
CYAN
 10
6.25
 20
6.29
 30
0.0
 11
7.37
 21
6.11
 31
0.0
  0
LINE
  8
CYAN
 10
6.36
 20
6.42
 30
0.0
 11
7.65
 21
6.25
 31
0.0
  0
LINE
  8
CYAN
 10
9.38
 20
7.84
 30
0.0
 11
9.24
 21
7.71
 31
0.0
  0
LINE
  8
CYAN
 10
9.64
 20
7.78
 30
0.0
 11
9.75
 21
7.75
 31
0.0
  0
LINE
  8
CYAN
 10
9.41
 20
7.66
 30
0.0
 11
9.64
 21
7.78
 31
0.0
  0
LINE
  8
CYAN
 10
9.13
 20
7.7
 30
0.0
 11
8.93
 21
7.73
 31
0.0
  0
LINE
  8
CYAN
 10
9.38
 20
7.61
 30
0.0
 11
9.13
 21
7.7
 31
0.0
  0
LINE
  8
CYAN
 10
9.77
 20
7.36
 30
0.0
 11
9.38
 21
7.61
 31
0.0
  0
LINE
  8
CYAN
 10
9.84
 20
7.24
 30
0.0
 11
9.77
 21
7.36
 31
0.0
  0
LINE
  8
BLUE
 10
10.14
 20
6.88
 30
0.0
 11
9.75
 21
6.74
 31
0.0
  0
LINE
  8
GREEN
 10
2.33
 20
3.74
 30
0.0
 11
2.5
 21
3.83
 31
0.0
  0
LINE
  8
GREEN
 10
2.14
 20
3.78
 30
0.0
 11
2.33
 21
3.74
 31
0.0
  0
LINE
  8
GREEN
 10
2.29
 20
3.88
 30
0.0
 11
2.14
 21
3.78
 31
0.0
  0
LINE
  8
GREEN
 10
2.51
 20
3.83
 30
0.0
 11
2.29
 21
3.88
 31
0.0
  0
LINE
  8
GREEN
 10
2.63
 20
3.65
 30
0.0
 11
2.8
 21
3.74
 31
0.0
  0
LINE
  8
GREEN
 10
2.41
 20
3.71
 30
0.0
 11
2.63
 21
3.65
 31
0.0
  0
LINE
  8
GREEN
 10
2.56
 20
3.8
 30
0.0
 11
2.41
 21
3.71
 31
0.0
  0
LINE
  8
GREEN
 10
2.8
 20
3.74
 30
0.0
 11
2.56
 21
3.8
 31
0.0
  0
LINE
  8
BLUE
 10
1.5
 20
3.69
 30
0.0
 11
1.6
 21
3.76
 31
0.0
  0
LINE
  8
BLUE
 10
1.41
 20
3.62
 30
0.0
 11
1.5
 21
3.69
 31
0.0
  0
LINE
  8
BLUE
 10
1.35
 20
3.49
 30
0.0
 11
1.41
 21
3.62
 31
0.0
  0
LINE
  8
WHITE
 10
1.08
 20
3.1
 30
0.0
 11
1.35
 21
3.49
 31
0.0
  0
LINE
  8
RED
 10
2.38
 20
1.54
 30
0.0
 11
1.52
 21
1.1
 31
0.0
  0
LINE
  8
RED
 10
2.59
 20
1.61
 30
0.0
 11
2.38
 21
1.54
 31
0.0
  0
LINE
  8
RED
 10
2.83
 20
1.61
 30
0.0
 11
2.59
 21
1.61
 31
0.0
  0
LINE
  8
RED
 10
3.13
 20
1.61
 30
0.0
 11
2.83
 21
1.61
 31
0.0
  0
LINE
  8
YELLOW
 10
3.92
 20
2.04
 30
0.0
 11
3.13
 21
1.61
 31
0.0
  0
LINE
  8
YELLOW
 10
5.76
 20
3.39
 30
0.0
 11
3.92
 21
2.04
 31
0.0
  0
LINE
  8
YELLOW
 10
6.0
 20
3.51
 30
0.0
 11
5.76
 21
3.39
 31
0.0
  0
LINE
  8
RED
 10
2.31
 20
1.38
 30
0.0
 11
1.56
 21
1.01
 31
0.0
  0
LINE
  8
RED
 10
2.65
 20
1.51
 30
0.0
 11
2.31
 21
1.38
 31
0.0
  0
LINE
  8
RED
 10
2.83
 20
1.54
 30
0.0
 11
2.65
 21
1.51
 31
0.0
  0
LINE
  8
RED
 10
3.08
 20
1.58
 30
0.0
 11
2.83
 21
1.54
 31
0.0
  0
LINE
  8
YELLOW
 10
3.94
 20
2.04
 30
0.0
 11
3.08
 21
1.58
 31
0.0
  0
LINE
  8
YELLOW
 10
5.83
 20
3.35
 30
0.0
 11
3.94
 21
2.04
 31
0.0
  0
LINE
  8
YELLOW
 10
6.03
 20
3.47
 30
0.0
 11
5.83
 21
3.35
 31
0.0
  0
LINE
  8
YELLOW
 10
3.88
 20
1.97
 30
0.0
 11
1.82
 21
0.92
 31
0.0
  0
LINE
  8
YELLOW
 10
4.09
 20
2.06
 30
0.0
 11
3.88
 21
1.97
 31
0.0
  0
LINE
  8
YELLOW
 10
5.87
 20
3.33
 30
0.0
 11
4.09
 21
2.06
 31
0.0
  0
LINE
  8
YELLOW
 10
6.05
 20
3.43
 30
0.0
 11
5.87
 21
3.33
 31
0.0
  0
LINE
  8
YELLOW
 10
5.72
 20
2.91
 30
0.0
 11
1.82
 21
0.8
 31
0.0
  0
LINE
  8
YELLOW
 10
6.1
 20
3.37
 30
0.0
 11
5.96
 21
3.28
 31
0.0
  0
LINE
  8
YELLOW
 10
5.93
 20
3.3
 30
0.0
 11
6.15
 21
3.1
 31
0.0
  0
LINE
  8
YELLOW
 10
5.59
 20
3.46
 30
0.0
 11
5.93
 21
3.3
 31
0.0
  0
LINE
  8
WHITE
 10
5.96
 20
3.62
 30
0.0
 11
5.59
 21
3.46
 31
0.0
  0
LINE
  8
WHITE
 10
2.08
 20
1.4
 30
0.0
 11
1.67
 21
1.22
 31
0.0
  0
LINE
  8
WHITE
 10
1.9
 20
1.65
 30
0.0
 11
2.08
 21
1.4
 31
0.0
  0
LINE
  8
WHITE
 10
1.52
 20
1.44
 30
0.0
 11
1.9
 21
1.65
 31
0.0
  0
LINE
  8
WHITE
 10
1.67
 20
1.22
 30
0.0
 11
1.52
 21
1.44
 31
0.0
  0
LINE
  8
WHITE
 10
1.75
 20
1.72
 30
0.0
 11
1.5
 21
1.6
 31
0.0
  0
LINE
  8
WHITE
 10
1.67
 20
1.83
 30
0.0
 11
1.75
 21
1.72
 31
0.0
  0
LINE
  8
WHITE
 10
1.56
 20
1.9
 30
0.0
 11
1.67
 21
1.83
 31
0.0
  0
LINE
  8
WHITE
 10
1.33
 20
1.72
 30
0.0
 11
1.56
 21
1.9
 31
0.0
  0
LINE
  8
WHITE
 10
1.5
 20
1.61
 30
0.0
 11
1.33
 21
1.72
 31
0.0
  0
LINE
  8
WHITE
 10
3.32
 20
2.75
 30
0.0
 11
1.33
 21
1.54
 31
0.0
  0
LINE
  8
WHITE
 10
3.43
 20
2.43
 30
0.0
 11
3.47
 21
2.64
 31
0.0
  0
LINE
  8
WHITE
 10
3.36
 20
2.13
 30
0.0
 11
3.43
 21
2.43
 31
0.0
  0
LINE
  8
WHITE
 10
4.54
 20
2.59
 30
0.0
 11
3.45
 21
2.05
 31
0.0
  0
LINE
  8
WHITE
 10
2.87
 20
2.18
 30
0.0
 11
1.24
 21
1.33
 31
0.0
  0
LINE
  8
WHITE
 10
3.21
 20
1.77
 30
0.0
 11
2.87
 21
2.18
 31
0.0
  0
LINE
  8
WHITE
 10
4.58
 20
2.61
 30
0.0
 11
3.21
 21
1.77
 31
0.0
  0
LINE
  8
WHITE
 10
5.89
 20
3.72
 30
0.0
 11
4.58
 21
2.61
 31
0.0
  0
LINE
  8
WHITE
 10
5.79
 20
3.95
 30
0.0
 11
4.56
 21
2.61
 31
0.0
  0
LINE
  8
WHITE
 10
5.74
 20
4.06
 30
0.0
 11
4.54
 21
2.59
 31
0.0
  0
LINE
  8
RED
 10
1.26
 20
3.35
 30
0.0
 11
1.28
 21
3.3
 31
0.0
  0
LINE
  8
RED
 10
1.2
 20
3.26
 30
0.0
 11
1.26
 21
3.35
 31
0.0
  0
LINE
  8
RED
 10
1.2
 20
3.17
 30
0.0
 11
1.2
 21
3.26
 31
0.0
  0
LINE
  8
RED
 10
1.28
 20
3.3
 30
0.0
 11
1.2
 21
3.17
 31
0.0
  0
LINE
  8
RED
 10
1.35
 20
3.17
 30
0.0
 11
1.26
 21
3.03
 31
0.0
  0
LINE
  8
RED
 10
1.28
 20
3.23
 30
0.0
 11
1.35
 21
3.17
 31
0.0
  0
LINE
  8
RED
 10
1.15
 20
3.07
 30
0.0
 11
1.28
 21
3.23
 31
0.0
  0
LINE
  8
RED
 10
1.26
 20
3.03
 30
0.0
 11
1.15
 21
3.07
 31
0.0
  0
LINE
  8
RED
 10
1.37
 20
3.1
 30
0.0
 11
1.45
 21
2.96
 31
0.0
  0
LINE
  8
RED
 10
1.3
 20
3.0
 30
0.0
 11
1.37
 21
3.1
 31
0.0
  0
LINE
  8
RED
 10
1.35
 20
2.78
 30
0.0
 11
1.3
 21
3.0
 31
0.0
  0
LINE
  8
RED
 10
1.41
 20
2.78
 30
0.0
 11
1.35
 21
2.78
 31
0.0
  0
LINE
  8
RED
 10
1.45
 20
2.96
 30
0.0
 11
1.41
 21
2.78
 31
0.0
  0
LINE
  8
BLUE
 10
1.67
 20
3.07
 30
0.0
 11
1.43
 21
2.68
 31
0.0
  0
LINE
  8
RED
 10
1.84
 20
2.89
 30
0.0
 11
2.05
 21
2.87
 31
0.0
  0
LINE
  8
RED
 10
1.69
 20
2.73
 30
0.0
 11
1.84
 21
2.89
 31
0.0
  0
LINE
  8
RED
 10
1.75
 20
2.66
 30
0.0
 11
1.69
 21
2.73
 31
0.0
  0
LINE
  8
RED
 10
2.08
 20
2.71
 30
0.0
 11
1.75
 21
2.66
 31
0.0
  0
LINE
  8
RED
 10
2.05
 20
2.87
 30
0.0
 11
2.08
 21
2.71
 31
0.0
  0
LINE
  8
RED
 10
2.16
 20
2.87
 30
0.0
 11
2.42
 21
2.89
 31
0.0
  0
LINE
  8
RED
 10
2.18
 20
2.71
 30
0.0
 11
2.16
 21
2.87
 31
0.0
  0
LINE
  8
RED
 10
2.55
 20
2.71
 30
0.0
 11
2.18
 21
2.71
 31
0.0
  0
LINE
  8
RED
 10
2.42
 20
2.89
 30
0.0
 11
2.55
 21
2.71
 31
0.0
  0
LINE
  8
RED
 10
2.8
 20
2.89
 30
0.0
 11
2.7
 21
3.03
 31
0.0
  0
LINE
  8
RED
 10
2.61
 20
2.73
 30
0.0
 11
2.8
 21
2.89
 31
0.0
  0
LINE
  8
RED
 10
2.53
 20
2.96
 30
0.0
 11
2.61
 21
2.73
 31
0.0
  0
LINE
  8
RED
 10
2.7
 20
3.03
 30
0.0
 11
2.53
 21
2.96
 31
0.0
  0
LINE
  8
BLUE
 10
3.79
 20
2.73
 30
0.0
 11
5.68
 21
4.21
 31
0.0
  0
LINE
  8
BLUE
 10
1.67
 20
3.07
 30
0.0
 11
3.06
 21
3.21
 31
0.0
  0
LINE
  8
BLUE
 10
1.35
 20
3.5
 30
0.0
 11
1.67
 21
3.07
 31
0.0
  0
LINE
  8
BLUE
 10
2.5
 20
3.29
 30
0.0
 11
3.17
 21
3.41
 31
0.0
  0
LINE
  8
BLUE
 10
1.8
 20
3.23
 30
0.0
 11
2.5
 21
3.29
 31
0.0
  0
LINE
  8
BLUE
 10
1.47
 20
3.67
 30
0.0
 11
1.8
 21
3.23
 31
0.0
  0
LINE
  8
BLUE
 10
1.69
 20
3.17
 30
0.0
 11
1.41
 21
3.61
 31
0.0
  0
LINE
  8
BLUE
 10
2.47
 20
3.23
 30
0.0
 11
1.69
 21
3.17
 31
0.0
  0
LINE
  8
BLUE
 10
3.14
 20
3.36
 30
0.0
 11
2.47
 21
3.23
 31
0.0
  0
LINE
  8
BLUE
 10
3.66
 20
2.99
 30
0.0
 11
3.52
 21
3.21
 31
0.0
  0
LINE
  8
BLUE
 10
5.59
 20
4.22
 30
0.0
 11
3.83
 21
2.89
 31
0.0
  0
LINE
  8
BLUE
 10
5.42
 20
4.61
 30
0.0
 11
3.66
 21
3.35
 31
0.0
  0
LINE
  8
BLUE
 10
3.77
 20
3.21
 30
0.0
 11
3.66
 21
3.35
 31
0.0
  0
LINE
  8
BLUE
 10
3.81
 20
3.1
 30
0.0
 11
3.77
 21
3.21
 31
0.0
  0
LINE
  8
BLUE
 10
5.59
 20
4.28
 30
0.0
 11
3.81
 21
3.1
 31
0.0
  0
LINE
  8
BLUE
 10
4.93
 20
5.53
 30
0.0
 11
2.63
 21
3.89
 31
0.0
  0
LINE
  8
BLUE
 10
3.77
 20
3.21
 30
0.0
 11
5.46
 21
4.45
 31
0.0
  0
LINE
  8
BLUE
 10
3.07
 20
3.47
 30
0.0
 11
3.19
 21
3.5
 31
0.0
  0
LINE
  8
BLUE
 10
2.53
 20
3.35
 30
0.0
 11
3.07
 21
3.47
 31
0.0
  0
LINE
  8
BLUE
 10
1.86
 20
3.33
 30
0.0
 11
2.53
 21
3.35
 31
0.0
  0
LINE
  8
BLUE
 10
1.56
 20
3.69
 30
0.0
 11
1.86
 21
3.33
 31
0.0
  0
LINE
  8
BLUE
 10
1.6
 20
3.76
 30
0.0
 11
1.56
 21
3.69
 31
0.0
  0
LINE
  8
BLUE
 10
4.82
 20
5.8
 30
0.0
 11
1.6
 21
3.76
 31
0.0
  0
CIRCLE
  8
RED
 10
7.97
 20
4.94
 30
0.0
 40
0.07
  0
CIRCLE
  8
RED
 10
8.51
 20
4.84
 30
0.0
 40
0.07
  0
ARC
  8
RED
 10
7.37
 20
4.47
 30
0.0
 40
0.22
 50
38.71
 51
286.68
  0
ARC
  8
MAGENTA
 10
9.17
 20
6.96
 30
0.0
 40
0.2
 50
328.81
 51
117.31
  0
LINE
  8
GREEN
 10
7.93
 20
5.91
 30
0.0
 11
5.59
 21
4.28
 31
0.0
  0
LINE
  8
CYAN
 10
5.57
 20
4.31
 30
0.0
 11
7.92
 21
5.91
 31
0.0
  0
LINE
  8
CYAN
 10
7.78
 20
5.92
 30
0.0
 11
5.5
 21
4.38
 31
0.0
  0
LINE
  8
CYAN
 10
7.93
 20
5.91
 30
0.0
 11
7.78
 21
5.92
 31
0.0
  0
LINE
  8
GREEN
 10
5.48
 20
4.43
 30
0.0
 11
7.85
 21
6.07
 31
0.0
  0
LINE
  8
CYAN
 10
5.7
 20
4.58
 30
0.0
 11
5.44
 21
4.66
 31
0.0
  0
LINE
  8
CYAN
 10
5.77
 20
4.76
 30
0.0
 11
5.46
 21
4.54
 31
0.0
  0
LINE
  8
CYAN
 10
5.66
 20
4.82
 30
0.0
 11
5.77
 21
4.76
 31
0.0
  0
LINE
  8
RED
 10
5.82
 20
4.66
 30
0.0
 11
5.73
 21
4.87
 31
0.0
  0
LINE
  8
CYAN
 10
5.91
 20
4.85
 30
0.0
 11
6.05
 21
4.82
 31
0.0
  0
LINE
  8
CYAN
 10
5.91
 20
4.85
 30
0.0
 11
5.78
 21
4.91
 31
0.0
  0
LINE
  8
CYAN
 10
6.07
 20
4.97
 30
0.0
 11
6.21
 21
4.93
 31
0.0
  0
LINE
  8
CYAN
 10
6.45
 20
5.09
 30
0.0
 11
6.19
 21
5.16
 31
0.0
  0
LINE
  8
CYAN
 10
6.38
 20
5.29
 30
0.0
 11
6.61
 21
5.21
 31
0.0
  0
LINE
  8
CYAN
 10
6.76
 20
5.31
 30
0.0
 11
6.52
 21
5.39
 31
0.0
  0
LINE
  8
CYAN
 10
6.93
 20
5.43
 30
0.0
 11
6.69
 21
5.51
 31
0.0
  0
LINE
  8
CYAN
 10
6.99
 20
5.62
 30
0.0
 11
6.88
 21
5.65
 31
0.0
  0
LINE
  8
CYAN
 10
7.14
 20
5.57
 30
0.0
 11
6.99
 21
5.62
 31
0.0
  0
LINE
  8
RED
 10
7.18
 20
5.6
 30
0.0
 11
7.1
 21
5.8
 31
0.0
  0
LINE
  8
CYAN
 10
7.53
 20
5.84
 30
0.0
 11
7.21
 21
5.9
 31
0.0
  0
LINE
  8
RED
 10
7.53
 20
5.84
 30
0.0
 11
7.42
 21
6.03
 31
0.0
  0
LINE
  8
RED
 10
7.5
 20
6.08
 30
0.0
 11
7.6
 21
5.89
 31
0.0
  0
LINE
  8
CYAN
 10
7.79
 20
6.02
 30
0.0
 11
7.5
 21
6.08
 31
0.0
  0
LINE
  8
CYAN
 10
6.92
 20
6.58
 30
0.0
 11
6.9
 21
6.68
 31
0.0
  0
LINE
  8
CYAN
 10
7.17
 20
6.65
 30
0.0
 11
6.74
 21
6.69
 31
0.0
  0
LINE
  8
CYAN
 10
5.15
 20
5.49
 30
0.0
 11
5.12
 21
5.58
 31
0.0
  0
LINE
  8
CYAN
 10
5.36
 20
5.63
 30
0.0
 11
5.33
 21
5.72
 31
0.0
  0
LINE
  8
CYAN
 10
5.55
 20
5.76
 30
0.0
 11
5.52
 21
5.86
 31
0.0
  0
LINE
  8
CYAN
 10
5.71
 20
5.87
 30
0.0
 11
5.68
 21
5.96
 31
0.0
  0
LINE
  8
CYAN
 10
5.91
 20
6.0
 30
0.0
 11
5.87
 21
6.09
 31
0.0
  0
LINE
  8
CYAN
 10
6.1
 20
6.13
 30
0.0
 11
6.07
 21
6.23
 31
0.0
  0
LINE
  8
CYAN
 10
6.26
 20
6.24
 30
0.0
 11
6.24
 21
6.35
 31
0.0
  0
LINE
  8
CYAN
 10
6.43
 20
6.47
 30
0.0
 11
6.47
 21
6.33
 31
0.0
  0
LINE
  8
CYAN
 10
6.61
 20
6.6
 30
0.0
 11
6.69
 21
6.27
 31
0.0
  0
LINE
  8
CYAN
 10
7.12
 20
5.55
 30
0.0
 11
7.12
 21
5.55
 31
0.0
  0
LINE
  8
CYAN
 10
7.43
 20
6.15
 30
0.0
 11
7.35
 21
6.5
 31
0.0
  0
LINE
  8
CYAN
 10
7.85
 20
6.07
 30
0.0
 11
7.09
 21
6.73
 31
0.0
  0
LINE
  8
CYAN
 10
5.01
 20
5.39
 30
0.0
 11
6.26
 21
6.24
 31
0.0
  0
LINE
  8
GREEN
 10
6.81
 20
6.74
 30
0.0
 11
4.97
 21
5.48
 31
0.0
  0
LINE
  8
CYAN
 10
6.79
 20
6.79
 30
0.0
 11
6.81
 21
6.74
 31
0.0
  0
LINE
  8
GREEN
 10
4.93
 20
5.53
 30
0.0
 11
6.79
 21
6.79
 31
0.0
  0
LINE
  8
CYAN
 10
5.42
 20
6.2
 30
0.0
 11
4.81
 21
6.33
 31
0.0
  0
LINE
  8
CYAN
 10
5.33
 20
6.26
 30
0.0
 11
5.35
 21
6.46
 31
0.0
  0
LINE
  8
CYAN
 10
5.23
 20
6.35
 30
0.0
 11
5.27
 21
6.26
 31
0.0
  0
LINE
  8
CYAN
 10
5.23
 20
6.26
 30
0.0
 11
5.23
 21
6.35
 31
0.0
  0
LINE
  8
CYAN
 10
5.12
 20
6.33
 30
0.0
 11
5.13
 21
6.49
 31
0.0
  0
LINE
  8
CYAN
 10
5.03
 20
6.4
 30
0.0
 11
5.08
 21
6.31
 31
0.0
  0
LINE
  8
CYAN
 10
5.01
 20
6.31
 30
0.0
 11
5.03
 21
6.4
 31
0.0
  0
LINE
  8
CYAN
 10
4.97
 20
6.51
 30
0.0
 11
5.01
 21
6.42
 31
0.0
  0
LINE
  8
CYAN
 10
4.93
 20
6.38
 30
0.0
 11
4.97
 21
6.51
 31
0.0
  0
LINE
  8
CYAN
 10
4.94
 20
6.3
 30
0.0
 11
4.97
 21
6.19
 31
0.0
  0
LINE
  8
CYAN
 10
4.9
 20
6.22
 30
0.0
 11
4.94
 21
6.3
 31
0.0
  0
LINE
  8
CYAN
 10
5.12
 20
6.27
 30
0.0
 11
5.16
 21
6.12
 31
0.0
  0
LINE
  8
CYAN
 10
5.09
 20
6.15
 30
0.0
 11
5.12
 21
6.27
 31
0.0
  0
LINE
  8
CYAN
 10
4.93
 20
5.96
 30
0.0
 11
4.94
 21
6.1
 31
0.0
  0
LINE
  8
YELLOW
 10
4.78
 20
6.38
 30
0.0
 11
5.04
 21
5.95
 31
0.0
  0
LINE
  8
YELLOW
 10
4.95
 20
6.52
 30
0.0
 11
4.78
 21
6.38
 31
0.0
  0
LINE
  8
CYAN
 10
5.12
 20
6.49
 30
0.0
 11
4.87
 21
6.23
 31
0.0
  0
LINE
  8
CYAN
 10
4.94
 20
6.1
 30
0.0
 11
5.35
 21
6.46
 31
0.0
  0
LINE
  8
CYAN
 10
5.73
 20
6.41
 30
0.0
 11
4.8
 21
6.54
 31
0.0
  0
LINE
  8
CYAN
 10
4.83
 20
6.63
 30
0.0
 11
5.88
 21
6.51
 31
0.0
  0
LINE
  8
GREEN
 10
4.82
 20
5.8
 30
0.0
 11
6.06
 21
6.63
 31
0.0
  0
LINE
  8
YELLOW
 10
4.48
 20
6.4
 30
0.0
 11
4.65
 21
6.58
 31
0.0
  0
LINE
  8
YELLOW
 10
4.68
 20
6.63
 30
0.0
 11
4.47
 21
6.5
 31
0.0
  0
LINE
  8
GREEN
 10
4.86
 20
6.74
 30
0.0
 11
4.68
 21
6.63
 31
0.0
  0
LINE
  8
GREEN
 10
6.06
 20
6.63
 30
0.0
 11
4.86
 21
6.74
 31
0.0
  0
LINE
  8
GREEN
 10
6.19
 20
6.72
 30
0.0
 11
6.06
 21
6.63
 31
0.0
  0
LINE
  8
CYAN
 10
7.13
 20
7.84
 30
0.0
 11
7.25
 21
7.91
 31
0.0
  0
LINE
  8
CYAN
 10
9.56
 20
7.25
 30
0.0
 11
9.9
 21
7.43
 31
0.0
  0
LINE
  8
CYAN
 10
9.72
 20
7.03
 30
0.0
 11
9.56
 21
7.25
 31
0.0
  0
LINE
  8
CYAN
 10
8.8
 20
6.96
 30
0.0
 11
8.74
 21
7.02
 31
0.0
  0
LINE
  8
CYAN
 10
8.03
 20
7.13
 30
0.0
 11
8.52
 21
7.48
 31
0.0
  0
LINE
  8
MAGENTA
 10
8.98
 20
7.18
 30
0.0
 11
8.46
 21
6.82
 31
0.0
  0
LINE
  8
CYAN
 10
9.04
 20
7.11
 30
0.0
 11
8.98
 21
7.18
 31
0.0
  0
LINE
  8
MAGENTA
 10
8.52
 20
6.79
 30
0.0
 11
9.08
 21
7.13
 31
0.0
  0
LINE
  8
MAGENTA
 10
8.75
 20
6.51
 30
0.0
 11
9.34
 21
6.86
 31
0.0
  0
LINE
  8
RED
 10
7.22
 20
5.92
 30
0.0
 11
7.15
 21
5.94
 31
0.0
  0
LINE
  8
RED
 10
7.19
 20
5.93
 30
0.0
 11
7.28
 21
6.03
 31
0.0
  0
LINE
  8
RED
 10
7.22
 20
6.03
 30
0.0
 11
7.15
 21
5.94
 31
0.0
  0
LINE
  8
RED
 10
7.41
 20
6.14
 30
0.0
 11
7.22
 21
6.03
 31
0.0
  0
LINE
  8
RED
 10
7.5
 20
6.08
 30
0.0
 11
7.41
 21
6.14
 31
0.0
  0
LINE
  8
RED
 10
7.31
 20
5.96
 30
0.0
 11
7.5
 21
6.08
 31
0.0
  0
LINE
  8
RED
 10
7.22
 20
5.92
 30
0.0
 11
7.31
 21
5.96
 31
0.0
  0
LINE
  8
RED
 10
7.13
 20
5.83
 30
0.0
 11
7.22
 21
5.92
 31
0.0
  0
LINE
  8
RED
 10
5.76
 20
4.97
 30
0.0
 11
5.86
 21
5.04
 31
0.0
  0
LINE
  8
RED
 10
5.78
 20
4.91
 30
0.0
 11
5.4
 21
4.63
 31
0.0
  0
LINE
  8
RED
 10
5.89
 20
5.0
 30
0.0
 11
5.78
 21
4.91
 31
0.0
  0
LINE
  8
RED
 10
6.0
 20
5.02
 30
0.0
 11
5.89
 21
5.0
 31
0.0
  0
LINE
  8
RED
 10
7.13
 20
5.83
 30
0.0
 11
6.0
 21
5.02
 31
0.0
  0
LINE
  8
RED
 10
5.85
 20
5.11
 30
0.0
 11
7.07
 21
5.89
 31
0.0
  0
LINE
  8
RED
 10
5.8
 20
5.05
 30
0.0
 11
5.85
 21
5.11
 31
0.0
  0
LINE
  8
RED
 10
5.68
 20
4.98
 30
0.0
 11
5.8
 21
5.05
 31
0.0
  0
LINE
  8
RED
 10
5.35
 20
4.75
 30
0.0
 11
5.68
 21
4.98
 31
0.0
  0
LINE
  8
CYAN
 10
5.46
 20
5.09
 30
0.0
 11
5.15
 21
5.18
 31
0.0
  0
LINE
  8
CYAN
 10
5.61
 20
5.23
 30
0.0
 11
5.32
 21
5.29
 31
0.0
  0
LINE
  8
CYAN
 10
5.83
 20
5.35
 30
0.0
 11
5.53
 21
5.42
 31
0.0
  0
LINE
  8
CYAN
 10
5.99
 20
5.48
 30
0.0
 11
5.73
 21
5.55
 31
0.0
  0
LINE
  8
CYAN
 10
6.17
 20
5.61
 30
0.0
 11
5.91
 21
5.66
 31
0.0
  0
LINE
  8
CYAN
 10
6.36
 20
5.71
 30
0.0
 11
6.06
 21
5.76
 31
0.0
  0
LINE
  8
CYAN
 10
6.51
 20
5.83
 30
0.0
 11
6.25
 21
5.88
 31
0.0
  0
LINE
  8
CYAN
 10
5.27
 20
5.25
 30
0.0
 11
5.19
 21
5.39
 31
0.0
  0
LINE
  8
CYAN
 10
5.49
 20
5.06
 30
0.0
 11
5.27
 21
5.25
 31
0.0
  0
LINE
  8
CYAN
 10
5.67
 20
4.97
 30
0.0
 11
5.49
 21
5.06
 31
0.0
  0
LINE
  8
CYAN
 10
5.65
 20
5.18
 30
0.0
 11
5.83
 21
5.08
 31
0.0
  0
LINE
  8
CYAN
 10
5.47
 20
5.38
 30
0.0
 11
5.65
 21
5.18
 31
0.0
  0
LINE
  8
CYAN
 10
5.4
 20
5.53
 30
0.0
 11
5.47
 21
5.38
 31
0.0
  0
LINE
  8
CYAN
 10
5.67
 20
5.51
 30
0.0
 11
5.59
 21
5.65
 31
0.0
  0
LINE
  8
CYAN
 10
5.85
 20
5.32
 30
0.0
 11
5.67
 21
5.51
 31
0.0
  0
LINE
  8
CYAN
 10
6.02
 20
5.23
 30
0.0
 11
5.85
 21
5.32
 31
0.0
  0
LINE
  8
CYAN
 10
6.02
 20
5.46
 30
0.0
 11
6.2
 21
5.34
 31
0.0
  0
LINE
  8
CYAN
 10
5.84
 20
5.62
 30
0.0
 11
6.02
 21
5.46
 31
0.0
  0
LINE
  8
CYAN
 10
5.76
 20
5.76
 30
0.0
 11
5.84
 21
5.62
 31
0.0
  0
LINE
  8
CYAN
 10
6.03
 20
5.74
 30
0.0
 11
5.96
 21
5.9
 31
0.0
  0
LINE
  8
CYAN
 10
6.21
 20
5.57
 30
0.0
 11
6.03
 21
5.74
 31
0.0
  0
LINE
  8
CYAN
 10
6.38
 20
5.46
 30
0.0
 11
6.21
 21
5.57
 31
0.0
  0
LINE
  8
CYAN
 10
6.21
 20
5.85
 30
0.0
 11
6.39
 21
5.69
 31
0.0
  0
LINE
  8
CYAN
 10
6.14
 20
6.02
 30
0.0
 11
6.21
 21
5.85
 31
0.0
  0
LINE
  8
CYAN
 10
6.53
 20
5.8
 30
0.0
 11
6.4
 21
5.98
 31
0.0
  0
LINE
  8
CYAN
 10
6.77
 20
5.7
 30
0.0
 11
6.53
 21
5.8
 31
0.0
  0
LINE
  8
CYAN
 10
8.33
 20
5.03
 30
0.0
 11
8.2
 21
5.28
 31
0.0
  0
LINE
  8
CYAN
 10
8.63
 20
5.21
 30
0.0
 11
8.55
 21
5.46
 31
0.0
  0
LINE
  8
CYAN
 10
6.3
 20
3.99
 30
0.0
 11
6.52
 21
3.87
 31
0.0
  0
LINE
  8
CYAN
 10
6.05
 20
4.53
 30
0.0
 11
6.3
 21
3.99
 31
0.0
  0
LINE
  8
CYAN
 10
6.49
 20
4.13
 30
0.0
 11
6.79
 21
3.99
 31
0.0
  0
LINE
  8
CYAN
 10
6.23
 20
4.66
 30
0.0
 11
6.49
 21
4.13
 31
0.0
  0
LINE
  8
CYAN
 10
6.68
 20
4.27
 30
0.0
 11
6.43
 21
4.79
 31
0.0
  0
LINE
  8
CYAN
 10
7.04
 20
4.09
 30
0.0
 11
6.68
 21
4.27
 31
0.0
  0
LINE
  8
CYAN
 10
6.87
 20
4.4
 30
0.0
 11
7.31
 21
4.21
 31
0.0
  0
LINE
  8
CYAN
 10
6.62
 20
4.93
 30
0.0
 11
6.87
 21
4.4
 31
0.0
  0
LINE
  8
CYAN
 10
7.56
 20
7.07
 30
0.0
 11
8.1
 21
9.41
 31
0.0
  0
LINE
  8
CYAN
 10
8.34
 20
9.53
 30
0.0
 11
7.99
 21
9.36
 31
0.0
  0
LINE
  8
YELLOW
 10
7.24
 20
7.11
 30
0.0
 11
8.08
 21
9.62
 31
0.0
  0
LINE
  8
YELLOW
 10
7.33
 20
6.93
 30
0.0
 11
7.24
 21
7.11
 31
0.0
  0
LINE
  8
CYAN
 10
8.03
 20
9.38
 30
0.0
 11
7.37
 21
6.95
 31
0.0
  0
LINE
  8
CYAN
 10
8.16
 20
9.44
 30
0.0
 11
7.78
 21
7.21
 31
0.0
  0
LINE
  8
CYAN
 10
7.93
 20
7.31
 30
0.0
 11
8.24
 21
9.49
 31
0.0
  0
LINE
  8
CYAN
 10
8.36
 20
9.77
 30
0.0
 11
8.14
 21
7.44
 31
0.0
  0
LINE
  8
GREEN
 10
8.63
 20
8.62
 30
0.0
 11
8.25
 21
8.56
 31
0.0
  0
LINE
  8
GREEN
 10
8.65
 20
9.69
 30
0.0
 11
8.34
 21
9.53
 31
0.0
  0
LINE
  8
CYAN
 10
7.33
 20
6.93
 30
0.0
 11
8.42
 21
7.61
 31
0.0
  0
LINE
  8
YELLOW
 10
7.03
 20
6.83
 30
0.0
 11
7.33
 21
6.93
 31
0.0
  0
LINE
  8
YELLOW
 10
6.85
 20
6.88
 30
0.0
 11
7.03
 21
6.83
 31
0.0
  0
LINE
  8
YELLOW
 10
7.61
 20
8.85
 30
0.0
 11
6.85
 21
6.88
 31
0.0
  0
LINE
  8
YELLOW
 10
7.8
 20
9.33
 30
0.0
 11
7.61
 21
8.85
 31
0.0
  0
LINE
  8
YELLOW
 10
8.03
 20
9.61
 30
0.0
 11
7.8
 21
9.33
 31
0.0
  0
LINE
  8
CYAN
 10
8.66
 20
9.93
 30
0.0
 11
8.08
 21
9.62
 31
0.0
  0
LINE
  8
GREEN
 10
8.63
 20
8.07
 30
0.0
 11
8.65
 21
9.69
 31
0.0
  0
LINE
  8
CYAN
 10
8.42
 20
7.61
 30
0.0
 11
8.63
 21
8.07
 31
0.0
  0
LINE
  8
CYAN
 10
8.23
 20
7.39
 30
0.0
 11
8.42
 21
7.26
 31
0.0
  0
LINE
  8
CYAN
 10
8.13
 20
7.33
 30
0.0
 11
8.29
 21
7.17
 31
0.0
  0
LINE
  8
CYAN
 10
9.57
 20
6.86
 30
0.0
 11
9.36
 21
7.02
 31
0.0
  0
LINE
  8
CYAN
 10
9.42
 20
6.77
 30
0.0
 11
9.33
 21
6.85
 31
0.0
  0
LINE
  8
CYAN
 10
9.11
 20
6.72
 30
0.0
 11
9.19
 21
6.64
 31
0.0
  0
LINE
  8
CYAN
 10
9.06
 20
6.56
 30
0.0
 11
8.99
 21
6.65
 31
0.0
  0
LINE
  8
CYAN
 10
8.59
 20
6.38
 30
0.0
 11
8.1
 21
6.18
 31
0.0
  0
LINE
  8
CYAN
 10
8.1
 20
6.23
 30
0.0
 11
8.59
 21
6.42
 31
0.0
  0
LINE
  8
CYAN
 10
8.58
 20
6.51
 30
0.0
 11
8.09
 21
6.26
 31
0.0
  0
LINE
  8
CYAN
 10
8.04
 20
6.44
 30
0.0
 11
8.52
 21
6.71
 31
0.0
  0
LINE
  8
CYAN
 10
8.37
 20
6.89
 30
0.0
 11
7.88
 21
6.61
 31
0.0
  0
LINE
  8
CYAN
 10
7.71
 20
6.7
 30
0.0
 11
8.1
 21
7.05
 31
0.0
  0
LINE
  8
CYAN
 10
7.96
 20
7.07
 30
0.0
 11
7.58
 21
6.72
 31
0.0
  0
LINE
  8
CYAN
 10
7.93
 20
5.91
 30
0.0
 11
9.64
 21
6.9
 31
0.0
  0
LINE
  8
CYAN
 10
5.59
 20
4.22
 30
0.0
 11
7.97
 21
5.85
 31
0.0
  0
LINE
  8
GREEN
 10
12.35
 20
5.65
 30
0.0
 11
12.13
 21
5.52
 31
0.0
  0
LINE
  8
GREEN
 10
12.21
 20
5.5
 30
0.0
 11
12.35
 21
5.65
 31
0.0
  0
LINE
  8
GREEN
 10
11.82
 20
5.78
 30
0.0
 11
11.56
 21
5.62
 31
0.0
  0
LINE
  8
GREEN
 10
11.64
 20
5.61
 30
0.0
 11
11.82
 21
5.78
 31
0.0
  0
LINE
  8
GREEN
 10
10.18
 20
6.19
 30
0.0
 11
9.81
 21
5.95
 31
0.0
  0
LINE
  8
GREEN
 10
9.89
 20
5.93
 30
0.0
 11
10.18
 21
6.19
 31
0.0
  0
LINE
  8
GREEN
 10
10.37
 20
6.14
 30
0.0
 11
9.99
 21
5.92
 31
0.0
  0
LINE
  8
GREEN
 10
10.12
 20
5.89
 30
0.0
 11
10.37
 21
6.14
 31
0.0
  0
LINE
  8
GREEN
 10
10.6
 20
6.09
 30
0.0
 11
10.23
 21
5.87
 31
0.0
  0
LINE
  8
GREEN
 10
10.31
 20
5.85
 30
0.0
 11
10.6
 21
6.09
 31
0.0
  0
LINE
  8
GREEN
 10
10.79
 20
6.04
 30
0.0
 11
10.45
 21
5.83
 31
0.0
  0
LINE
  8
GREEN
 10
10.53
 20
5.81
 30
0.0
 11
10.79
 21
6.04
 31
0.0
  0
LINE
  8
GREEN
 10
11.03
 20
5.98
 30
0.0
 11
10.65
 21
5.79
 31
0.0
  0
LINE
  8
GREEN
 10
10.77
 20
5.77
 30
0.0
 11
11.03
 21
5.98
 31
0.0
  0
LINE
  8
GREEN
 10
11.21
 20
5.94
 30
0.0
 11
10.89
 21
5.75
 31
0.0
  0
LINE
  8
GREEN
 10
10.97
 20
5.73
 30
0.0
 11
11.21
 21
5.94
 31
0.0
  0
LINE
  8
GREEN
 10
11.44
 20
5.87
 30
0.0
 11
11.1
 21
5.71
 31
0.0
  0
LINE
  8
GREEN
 10
11.27
 20
5.68
 30
0.0
 11
11.44
 21
5.87
 31
0.0
  0
LINE
  8
GREEN
 10
11.99
 20
5.74
 30
0.0
 11
11.77
 21
5.59
 31
0.0
  0
LINE
  8
GREEN
 10
11.83
 20
5.57
 30
0.0
 11
11.99
 21
5.74
 31
0.0
  0
LINE
  8
GREEN
 10
12.5
 20
5.61
 30
0.0
 11
12.34
 21
5.48
 31
0.0
  0
LINE
  8
GREEN
 10
12.42
 20
5.47
 30
0.0
 11
12.5
 21
5.61
 31
0.0
  0
LINE
  8
GREEN
 10
12.71
 20
5.55
 30
0.0
 11
12.53
 21
5.44
 31
0.0
  0
LINE
  8
GREEN
 10
12.61
 20
5.43
 30
0.0
 11
12.71
 21
5.55
 31
0.0
  0
LINE
  8
CYAN
 10
12.58
 20
5.34
 30
0.0
 11
12.61
 21
5.43
 31
0.0
  0
LINE
  8
GREEN
 10
12.92
 20
5.5
 30
0.0
 11
12.64
 21
5.32
 31
0.0
  0
LINE
  8
CYAN
 10
10.11
 20
5.73
 30
0.0
 11
8.57
 21
4.7
 31
0.0
  0
LINE
  8
CYAN
 10
9.31
 20
4.84
 30
0.0
 11
10.49
 21
5.67
 31
0.0
  0
LINE
  8
CYAN
 10
10.92
 20
5.61
 30
0.0
 11
9.99
 21
4.95
 31
0.0
  0
LINE
  8
CYAN
 10
10.75
 20
5.11
 30
0.0
 11
11.29
 21
5.54
 31
0.0
  0
LINE
  8
CYAN
 10
11.87
 20
5.45
 30
0.0
 11
11.58
 21
5.23
 31
0.0
  0
LINE
  8
CYAN
 10
8.57
 20
4.7
 30
0.0
 11
7.65
 21
4.93
 31
0.0
  0
LINE
  8
CYAN
 10
9.21
 20
4.82
 30
0.0
 11
7.94
 21
5.12
 31
0.0
  0
LINE
  8
CYAN
 10
9.98
 20
4.95
 30
0.0
 11
8.2
 21
5.28
 31
0.0
  0
LINE
  8
CYAN
 10
10.58
 20
5.09
 30
0.0
 11
8.57
 21
5.46
 31
0.0
  0
LINE
  8
GREEN
 10
9.84
 20
6.61
 30
0.0
 11
10.48
 21
6.56
 31
0.0
  0
LINE
  8
CYAN
 10
9.98
 20
6.17
 30
0.0
 11
9.72
 21
6.6
 31
0.0
  0
LINE
  8
CYAN
 10
9.88
 20
6.12
 30
0.0
 11
9.6
 21
6.53
 31
0.0
  0
LINE
  8
CYAN
 10
9.66
 20
5.98
 30
0.0
 11
9.45
 21
6.44
 31
0.0
  0
LINE
  8
CYAN
 10
9.73
 20
6.03
 30
0.0
 11
9.28
 21
6.69
 31
0.0
  0
LINE
  8
CYAN
 10
9.52
 20
5.93
 30
0.0
 11
9.17
 21
6.62
 31
0.0
  0
LINE
  8
CYAN
 10
9.36
 20
5.85
 30
0.0
 11
9.15
 21
6.28
 31
0.0
  0
LINE
  8
CYAN
 10
9.22
 20
5.77
 30
0.0
 11
8.88
 21
6.46
 31
0.0
  0
LINE
  8
CYAN
 10
9.07
 20
5.7
 30
0.0
 11
8.83
 21
6.1
 31
0.0
  0
LINE
  8
CYAN
 10
8.54
 20
6.27
 30
0.0
 11
8.91
 21
5.62
 31
0.0
  0
LINE
  8
CYAN
 10
8.74
 20
5.54
 30
0.0
 11
8.39
 21
6.18
 31
0.0
  0
LINE
  8
CYAN
 10
8.55
 20
5.45
 30
0.0
 11
8.2
 21
6.07
 31
0.0
  0
LINE
  8
CYAN
 10
8.06
 20
5.66
 30
0.0
 11
9.81
 21
6.65
 31
0.0
  0
LINE
  8
CYAN
 10
7.97
 20
5.85
 30
0.0
 11
8.24
 21
5.3
 31
0.0
  0
LINE
  8
CYAN
 10
8.06
 20
5.19
 30
0.0
 11
7.8
 21
5.73
 31
0.0
  0
LINE
  8
CYAN
 10
7.61
 20
5.6
 30
0.0
 11
7.87
 21
5.07
 31
0.0
  0
LINE
  8
CYAN
 10
7.65
 20
4.93
 30
0.0
 11
7.42
 21
5.47
 31
0.0
  0
LINE
  8
CYAN
 10
7.45
 20
4.8
 30
0.0
 11
7.23
 21
5.34
 31
0.0
  0
LINE
  8
CYAN
 10
8.15
 20
4.55
 30
0.0
 11
7.38
 21
4.75
 31
0.0
  0
LINE
  8
CYAN
 10
7.01
 20
5.19
 30
0.0
 11
7.26
 21
4.68
 31
0.0
  0
LINE
  8
CYAN
 10
7.09
 20
4.55
 30
0.0
 11
6.82
 21
5.06
 31
0.0
  0
LINE
  8
CYAN
 10
7.62
 20
4.35
 30
0.0
 11
7.09
 21
4.55
 31
0.0
  0
LINE
  8
CYAN
 10
6.1
 20
3.86
 30
0.0
 11
6.27
 21
3.76
 31
0.0
  0
LINE
  8
CYAN
 10
5.89
 20
4.43
 30
0.0
 11
6.1
 21
3.86
 31
0.0
  0
LINE
  8
CYAN
 10
5.89
 20
3.72
 30
0.0
 11
5.65
 21
4.27
 31
0.0
  0
LINE
  8
CYAN
 10
6.01
 20
3.64
 30
0.0
 11
5.89
 21
3.72
 31
0.0
  0
LINE
  8
CYAN
 10
8.96
 20
5.64
 30
0.0
 11
9.36
 21
5.85
 31
0.0
  0
LINE
  8
CYAN
 10
8.27
 20
5.32
 30
0.0
 11
8.96
 21
5.64
 31
0.0
  0
LINE
  8
CYAN
 10
7.67
 20
4.95
 30
0.0
 11
8.27
 21
5.32
 31
0.0
  0
LINE
  8
CYAN
 10
5.89
 20
3.72
 30
0.0
 11
7.67
 21
4.95
 31
0.0
  0
LINE
  8
CYAN
 10
7.76
 20
4.4
 30
0.0
 11
5.96
 21
3.62
 31
0.0
  0
LINE
  8
CYAN
 10
8.63
 20
4.72
 30
0.0
 11
7.76
 21
4.4
 31
0.0
  0
LINE
  8
CYAN
 10
10.41
 20
5.02
 30
0.0
 11
8.63
 21
4.72
 31
0.0
  0
LINE
  8
CYAN
 10
10.58
 20
5.09
 30
0.0
 11
10.41
 21
5.02
 31
0.0
  0
LINE
  8
CYAN
 10
11.93
 20
5.28
 30
0.0
 11
10.58
 21
5.09
 31
0.0
  0
LINE
  8
CYAN
 10
12.14
 20
5.41
 30
0.0
 11
11.93
 21
5.28
 31
0.0
  0
LINE
  8
CYAN
 10
12.58
 20
5.34
 30
0.0
 11
9.36
 21
5.85
 31
0.0
  0
LINE
  8
YELLOW
 10
12.74
 20
5.27
 30
0.0
 11
12.58
 21
5.34
 31
0.0
  0
LINE
  8
YELLOW
 10
6.13
 20
3.38
 30
0.0
 11
6.36
 21
3.2
 31
0.0
  0
LINE
  8
YELLOW
 10
6.29
 20
3.48
 30
0.0
 11
6.57
 21
3.29
 31
0.0
  0
LINE
  8
YELLOW
 10
6.47
 20
3.58
 30
0.0
 11
6.79
 21
3.39
 31
0.0
  0
LINE
  8
YELLOW
 10
6.66
 20
3.7
 30
0.0
 11
7.02
 21
3.5
 31
0.0
  0
LINE
  8
YELLOW
 10
6.85
 20
3.81
 30
0.0
 11
7.27
 21
3.61
 31
0.0
  0
LINE
  8
YELLOW
 10
7.09
 20
3.95
 30
0.0
 11
7.51
 21
3.72
 31
0.0
  0
LINE
  8
YELLOW
 10
7.46
 20
4.17
 30
0.0
 11
7.78
 21
3.84
 31
0.0
  0
LINE
  8
YELLOW
 10
7.74
 20
4.28
 30
0.0
 11
8.01
 21
3.94
 31
0.0
  0
LINE
  8
YELLOW
 10
7.97
 20
4.37
 30
0.0
 11
8.23
 21
4.04
 31
0.0
  0
LINE
  8
YELLOW
 10
8.27
 20
4.48
 30
0.0
 11
8.54
 21
4.14
 31
0.0
  0
LINE
  8
YELLOW
 10
8.61
 20
4.61
 30
0.0
 11
8.89
 21
4.27
 31
0.0
  0
LINE
  8
YELLOW
 10
8.89
 20
4.65
 30
0.0
 11
9.03
 21
4.29
 31
0.0
  0
LINE
  8
YELLOW
 10
9.21
 20
4.69
 30
0.0
 11
9.4
 21
4.35
 31
0.0
  0
LINE
  8
YELLOW
 10
9.56
 20
4.74
 30
0.0
 11
9.76
 21
4.42
 31
0.0
  0
LINE
  8
YELLOW
 10
9.94
 20
4.79
 30
0.0
 11
10.09
 21
4.48
 31
0.0
  0
LINE
  8
YELLOW
 10
10.24
 20
4.83
 30
0.0
 11
10.4
 21
4.53
 31
0.0
  0
LINE
  8
YELLOW
 10
10.58
 20
4.88
 30
0.0
 11
10.77
 21
4.59
 31
0.0
  0
LINE
  8
YELLOW
 10
10.95
 20
4.93
 30
0.0
 11
11.12
 21
4.66
 31
0.0
  0
LINE
  8
YELLOW
 10
11.31
 20
4.98
 30
0.0
 11
11.44
 21
4.71
 31
0.0
  0
LINE
  8
YELLOW
 10
11.75
 20
5.04
 30
0.0
 11
11.84
 21
4.78
 31
0.0
  0
LINE
  8
YELLOW
 10
12.08
 20
5.09
 30
0.0
 11
12.17
 21
4.84
 31
0.0
  0
LINE
  8
YELLOW
 10
12.23
 20
5.16
 30
0.0
 11
12.44
 21
5.02
 31
0.0
  0
LINE
  8
YELLOW
 10
12.74
 20
5.27
 30
0.0
 11
12.6
 21
5.14
 31
0.0
  0
LINE
  8
YELLOW
 10
12.43
 20
5.25
 30
0.0
 11
12.6
 21
5.14
 31
0.0
  0
LINE
  8
YELLOW
 10
12.08
 20
5.09
 30
0.0
 11
12.43
 21
5.25
 31
0.0
  0
LINE
  8
YELLOW
 10
8.61
 20
4.61
 30
0.0
 11
12.08
 21
5.09
 31
0.0
  0
LINE
  8
YELLOW
 10
7.46
 20
4.17
 30
0.0
 11
8.61
 21
4.61
 31
0.0
  0
LINE
  8
YELLOW
 10
6.1
 20
3.37
 30
0.0
 11
7.46
 21
4.17
 31
0.0
  0
LINE
  8
YELLOW
 10
8.23
 20
4.04
 30
0.0
 11
5.72
 21
2.91
 31
0.0
  0
LINE
  8
YELLOW
 10
8.89
 20
4.27
 30
0.0
 11
8.23
 21
4.04
 31
0.0
  0
LINE
  8
YELLOW
 10
12.17
 20
4.84
 30
0.0
 11
8.89
 21
4.27
 31
0.0
  0
LINE
  8
YELLOW
 10
12.6
 20
5.14
 30
0.0
 11
12.17
 21
4.84
 31
0.0
  0
LINE
  8
GREEN
 10
12.98
 20
5.48
 30
0.0
 11
12.74
 21
5.27
 31
0.0
  0
LINE
  8
CYAN
 10
8.1
 20
6.14
 30
0.0
 11
8.59
 21
6.33
 31
0.0
  0
LINE
  8
CYAN
 10
7.99
 20
6.12
 30
0.0
 11
8.1
 21
6.14
 31
0.0
  0
LINE
  8
CYAN
 10
7.46
 20
6.7
 30
0.0
 11
7.46
 21
6.65
 31
0.0
  0
LINE
  8
CYAN
 10
7.91
 20
7.18
 30
0.0
 11
7.46
 21
6.7
 31
0.0
  0
LINE
  8
CYAN
 10
8.57
 20
7.6
 30
0.0
 11
7.91
 21
7.18
 31
0.0
  0
LINE
  8
CYAN
 10
9.49
 20
7.61
 30
0.0
 11
9.41
 21
7.66
 31
0.0
  0
LINE
  8
CYAN
 10
9.75
 20
7.75
 30
0.0
 11
9.49
 21
7.61
 31
0.0
  0
LINE
  8
CYAN
 10
9.83
 20
7.68
 30
0.0
 11
9.75
 21
7.75
 31
0.0
  0
LINE
  8
CYAN
 10
9.92
 20
7.73
 30
0.0
 11
9.83
 21
7.68
 31
0.0
  0
LINE
  8
CYAN
 10
9.98
 20
7.64
 30
0.0
 11
9.92
 21
7.73
 31
0.0
  0
LINE
  8
CYAN
 10
9.92
 20
7.59
 30
0.0
 11
9.98
 21
7.64
 31
0.0
  0
LINE
  8
CYAN
 10
9.88
 20
7.29
 30
0.0
 11
9.92
 21
7.59
 31
0.0
  0
LINE
  8
CYAN
 10
9.64
 20
6.9
 30
0.0
 11
9.88
 21
7.29
 31
0.0
  0
LINE
  8
CYAN
 10
10.09
 20
6.22
 30
0.0
 11
9.64
 21
6.9
 31
0.0
  0
LINE
  8
GREEN
 10
10.48
 20
6.56
 30
0.0
 11
10.09
 21
6.22
 31
0.0
  0
LINE
  8
GREEN
 10
10.16
 20
6.2
 30
0.0
 11
10.48
 21
6.56
 31
0.0
  0
LINE
  8
CYAN
 10
11.44
 20
5.21
 30
0.0
 11
8.96
 21
5.64
 31
0.0
  0
LINE
  8
CYAN
 10
11.27
 20
5.18
 30
0.0
 11
11.25
 21
5.24
 31
0.0
  0
LINE
  8
CYAN
 10
9.02
 20
5.39
 30
0.0
 11
8.93
 21
5.64
 31
0.0
  0
LINE
  8
CYAN
 10
5.96
 20
5.01
 30
0.0
 11
6.07
 21
4.97
 31
0.0
  0
LINE
  8
CYAN
 10
6.84
 20
5.75
 30
0.0
 11
6.7
 21
6.21
 31
0.0
  0
LINE
  8
CYAN
 10
6.62
 20
5.76
 30
0.0
 11
6.48
 21
6.25
 31
0.0
  0
LINE
  8
CYAN
 10
7.04
 20
5.87
 30
0.0
 11
6.81
 21
6.74
 31
0.0
  0
LINE
  8
CYAN
 10
7.11
 20
5.58
 30
0.0
 11
7.06
 21
5.77
 31
0.0
  0
LINE
  8
CYAN
 10
7.31
 20
5.69
 30
0.0
 11
7.25
 21
5.93
 31
0.0
  0
LINE
  8
CYAN
 10
7.22
 20
6.03
 30
0.0
 11
7.06
 21
6.66
 31
0.0
  0
LINE
  8
CYAN
 10
7.44
 20
6.42
 30
0.0
 11
6.54
 21
6.55
 31
0.0
  0
ENDSEC
  0
EOF
